  0
SECTION
  2
HEADER
  9
$ACADVER
  1
AC1015
  9
$ACADMAINTVER
 70
     6
  9
$DWGCODEPAGE
  3
ANSI_1254
  9
$INSBASE
 10
0.0
 20
0.0
 30
0.0
  9
$EXTMIN
 10
0.0
 20
0.0
 30
0.0
  9
$EXTMAX
 10
279.4
 20
215.9
 30
0.0
  9
$LIMMIN
 10
0.0
 20
0.0
  9
$LIMMAX
 10
279.4
 20
215.9
  9
$ORTHOMODE
 70
     0
  9
$REGENMODE
 70
     1
  9
$FILLMODE
 70
     1
  9
$QTEXTMODE
 70
     0
  9
$MIRRTEXT
 70
     1
  9
$LTSCALE
 40
1.0
  9
$ATTMODE
 70
     1
  9
$TEXTSIZE
 40
3.5
  9
$TRACEWID
 40
1.0
  9
$TEXTSTYLE
  7
Standard
  9
$CLAYER
  8
0
  9
$CELTYPE
  6
ByLayer
  9
$CECOLOR
 62
   256
  9
$CELTSCALE
 40
1.0
  9
$DISPSILH
 70
     0
  9
$DIMSCALE
 40
1.0
  9
$DIMASZ
 40
3.5
  9
$DIMEXO
 40
1.0
  9
$DIMDLI
 40
3.75
  9
$DIMRND
 40
0.0
  9
$DIMDLE
 40
0.0
  9
$DIMEXE
 40
1.0
  9
$DIMTP
 40
0.0
  9
$DIMTM
 40
0.0
  9
$DIMTXT
 40
3.5
  9
$DIMCEN
 40
2.5
  9
$DIMTSZ
 40
0.0
  9
$DIMTOL
 70
     0
  9
$DIMLIM
 70
     0
  9
$DIMTIH
 70
     1
  9
$DIMTOH
 70
     1
  9
$DIMSE1
 70
     0
  9
$DIMSE2
 70
     0
  9
$DIMTAD
 70
     1
  9
$DIMZIN
 70
     0
  9
$DIMBLK
  1

  9
$DIMASO
 70
     1
  9
$DIMSHO
 70
     1
  9
$DIMPOST
  1

  9
$DIMAPOST
  1

  9
$DIMALT
 70
     0
  9
$DIMALTD
 70
     3
  9
$DIMALTF
 40
0.0393700787
  9
$DIMLFAC
 40
1.0
  9
$DIMTOFL
 70
     1
  9
$DIMTVP
 40
0.0
  9
$DIMTIX
 70
     0
  9
$DIMSOXD
 70
     0
  9
$DIMSAH
 70
     0
  9
$DIMBLK1
  1

  9
$DIMBLK2
  1

  9
$DIMSTYLE
  2
ISO-25
  9
$DIMCLRD
 70
     0
  9
$DIMCLRE
 70
     0
  9
$DIMCLRT
 70
     0
  9
$DIMTFAC
 40
1.0
  9
$DIMGAP
 40
1.524
  9
$DIMJUST
 70
     0
  9
$DIMSD1
 70
     0
  9
$DIMSD2
 70
     0
  9
$DIMTOLJ
 70
     0
  9
$DIMTZIN
 70
     0
  9
$DIMALTZ
 70
     0
  9
$DIMALTTZ
 70
     0
  9
$DIMUPT
 70
     0
  9
$DIMDEC
 70
     2
  9
$DIMTDEC
 70
     2
  9
$DIMALTU
 70
     2
  9
$DIMALTTD
 70
     3
  9
$DIMTXSTY
  7
Standard
  9
$DIMAUNIT
 70
     0
  9
$DIMADEC
 70
     2
  9
$DIMALTRND
 40
0.0
  9
$DIMAZIN
 70
     0
  9
$DIMDSEP
 70
    44
  9
$DIMATFIT
 70
     3
  9
$DIMFRAC
 70
     0
  9
$DIMLDRBLK
  1

  9
$DIMLUNIT
 70
     2
  9
$DIMLWD
 70
    -2
  9
$DIMLWE
 70
    -2
  9
$DIMTMOVE
 70
     0
  9
$LUNITS
 70
     2
  9
$LUPREC
 70
     2
  9
$SKETCHINC
 40
1.0
  9
$FILLETRAD
 40
10.0
  9
$AUNITS
 70
     0
  9
$AUPREC
 70
     2
  9
$MENU
  1
.
  9
$ELEVATION
 40
0.0
  9
$PELEVATION
 40
0.0
  9
$THICKNESS
 40
0.0
  9
$LIMCHECK
 70
     0
  9
$CHAMFERA
 40
0.0
  9
$CHAMFERB
 40
0.0
  9
$CHAMFERC
 40
0.0
  9
$CHAMFERD
 40
0.0
  9
$SKPOLY
 70
     0
  9
$TDCREATE
 40
2459741.5910136
  9
$TDUCREATE
 40
2459741.4660136
  9
$TDUPDATE
 40
2459741.591015555
  9
$TDUUPDATE
 40
2459741.466015555
  9
$TDINDWG
 40
0.0000000116
  9
$TDUSRTIMER
 40
0.0000000116
  9
$USRTIMER
 70
     1
  9
$ANGBASE
 50
0.0
  9
$ANGDIR
 70
     0
  9
$PDMODE
 70
     0
  9
$PDSIZE
 40
-1.0
  9
$PLINEWID
 40
0.0
  9
$SPLFRAME
 70
     0
  9
$SPLINETYPE
 70
     6
  9
$SPLINESEGS
 70
     8
  9
$HANDSEED
  5
178
  9
$SURFTAB1
 70
     6
  9
$SURFTAB2
 70
     6
  9
$SURFTYPE
 70
     6
  9
$SURFU
 70
     6
  9
$SURFV
 70
     6
  9
$UCSBASE
  2

  9
$UCSNAME
  2

  9
$UCSORG
 10
0.0
 20
0.0
 30
0.0
  9
$UCSXDIR
 10
1.0
 20
0.0
 30
0.0
  9
$UCSYDIR
 10
0.0
 20
1.0
 30
0.0
  9
$UCSORTHOREF
  2

  9
$UCSORTHOVIEW
 70
     0
  9
$UCSORGTOP
 10
0.0
 20
0.0
 30
0.0
  9
$UCSORGBOTTOM
 10
0.0
 20
0.0
 30
0.0
  9
$UCSORGLEFT
 10
0.0
 20
0.0
 30
0.0
  9
$UCSORGRIGHT
 10
0.0
 20
0.0
 30
0.0
  9
$UCSORGFRONT
 10
0.0
 20
0.0
 30
0.0
  9
$UCSORGBACK
 10
0.0
 20
0.0
 30
0.0
  9
$PUCSBASE
  2

  9
$PUCSNAME
  2

  9
$PUCSORG
 10
0.0
 20
0.0
 30
0.0
  9
$PUCSXDIR
 10
1.0
 20
0.0
 30
0.0
  9
$PUCSYDIR
 10
0.0
 20
1.0
 30
0.0
  9
$PUCSORTHOREF
  2

  9
$PUCSORTHOVIEW
 70
     0
  9
$PUCSORGTOP
 10
0.0
 20
0.0
 30
0.0
  9
$PUCSORGBOTTOM
 10
0.0
 20
0.0
 30
0.0
  9
$PUCSORGLEFT
 10
0.0
 20
0.0
 30
0.0
  9
$PUCSORGRIGHT
 10
0.0
 20
0.0
 30
0.0
  9
$PUCSORGFRONT
 10
0.0
 20
0.0
 30
0.0
  9
$PUCSORGBACK
 10
0.0
 20
0.0
 30
0.0
  9
$USERI1
 70
     0
  9
$USERI2
 70
     0
  9
$USERI3
 70
     0
  9
$USERI4
 70
     0
  9
$USERI5
 70
     0
  9
$USERR1
 40
0.0
  9
$USERR2
 40
0.0
  9
$USERR3
 40
0.0
  9
$USERR4
 40
0.0
  9
$USERR5
 40
0.0
  9
$WORLDVIEW
 70
     1
  9
$SHADEDGE
 70
     3
  9
$SHADEDIF
 70
    70
  9
$TILEMODE
 70
     1
  9
$MAXACTVP
 70
    64
  9
$PINSBASE
 10
0.0
 20
0.0
 30
0.0
  9
$PLIMCHECK
 70
     0
  9
$PEXTMIN
 10
1.0000000000E+20
 20
1.0000000000E+20
 30
1.0000000000E+20
  9
$PEXTMAX
 10
-1.0000000000E+20
 20
-1.0000000000E+20
 30
-1.0000000000E+20
  9
$PLIMMIN
 10
0.0
 20
0.0
  9
$PLIMMAX
 10
420.0
 20
297.0
  9
$UNITMODE
 70
     0
  9
$VISRETAIN
 70
     1
  9
$PLINEGEN
 70
     0
  9
$PSLTSCALE
 70
     1
  9
$TREEDEPTH
 70
  3020
  9
$CMLSTYLE
  2
Standard
  9
$CMLJUST
 70
     0
  9
$CMLSCALE
 40
20.0
  9
$PROXYGRAPHICS
 70
     1
  9
$MEASUREMENT
 70
     1
  9
$CELWEIGHT
370
    -1
  9
$ENDCAPS
280
     0
  9
$JOINSTYLE
280
     0
  9
$LWDISPLAY
290
     1
  9
$INSUNITS
 70
     4
  9
$HYPERLINKBASE
  1

  9
$STYLESHEET
  1

  9
$XEDIT
290
     1
  9
$CEPSNTYPE
380
     0
  9
$PSTYLEMODE
290
     1
  9
$FINGERPRINTGUID
  2
{40783434-bcaf-48a4-b1e1-2da6cfe54c72}
  9
$VERSIONGUID
  2
{FAEB1C32-E019-11D5-929B-00C0DF256EC4}
  9
$EXTNAMES
290
     1
  9
$PSVPSCALE
 40
0.0
  9
$OLESTARTUP
290
     0
  0
ENDSEC
  0
SECTION
  2
CLASSES
  0
CLASS
  1
ACDBDICTIONARYWDFLT
  2
AcDbDictionaryWithDefault
  3
ObjectDBX Classes
 90
        0
280
     0
281
     0
  0
CLASS
  1
VISUALSTYLE
  2
AcDbVisualStyle
  3
ObjectDBX Classes
 90
     4095
280
     0
281
     0
  0
CLASS
  1
MATERIAL
  2
AcDbMaterial
  3
ObjectDBX Classes
 90
     1153
280
     0
281
     0
  0
CLASS
  1
SCALE
  2
AcDbScale
  3
ObjectDBX Classes
 90
     1153
280
     0
281
     0
  0
CLASS
  1
TABLESTYLE
  2
AcDbTableStyle
  3
ObjectDBX Classes
 90
     4095
280
     0
281
     0
  0
CLASS
  1
MLEADERSTYLE
  2
AcDbMLeaderStyle
  3
ACDB_MLEADERSTYLE_CLASS
 90
     4095
280
     0
281
     0
  0
CLASS
  1
SUN
  2
AcDbSun
  3
SCENEOE
 90
     1153
280
     0
281
     0
  0
CLASS
  1
ACDBPLACEHOLDER
  2
AcDbPlaceHolder
  3
ObjectDBX Classes
 90
        0
280
     0
281
     0
  0
CLASS
  1
LAYOUT
  2
AcDbLayout
  3
ObjectDBX Classes
 90
        0
280
     0
281
     0
  0
ENDSEC
  0
SECTION
  2
TABLES
  0
TABLE
  2
VPORT
  5
8
330
0
100
AcDbSymbolTable
 70
     1
  0
VPORT
  5
29
330
8
100
AcDbSymbolTableRecord
100
AcDbViewportTableRecord
  2
*Active
 70
     0
 10
0.0
 20
0.0
 11
1.0
 21
1.0
 12
139.7
 22
107.95
 13
0.0
 23
0.0
 14
10.0
 24
10.0
 15
10.0
 25
10.0
 16
0.0
 26
0.0
 36
1.0
 17
0.0
 27
0.0
 37
0.0
 40
215.9
 41
1.2941176471
 42
50.0
 43
0.0
 44
0.0
 50
0.0
 51
0.0
 71
     0
 72
  2000
 73
     1
 74
     3
 75
     0
 76
     0
 77
     0
 78
     0
281
     0
 65
     1
110
0.0
120
0.0
130
0.0
111
1.0
121
0.0
131
0.0
112
0.0
122
1.0
132
0.0
 79
     0
146
0.0
  0
ENDTAB
  0
TABLE
  2
LTYPE
  5
5
330
0
100
AcDbSymbolTable
 70
     6
  0
LTYPE
  5
14
330
5
100
AcDbSymbolTableRecord
100
AcDbLinetypeTableRecord
  2
ByBlock
 70
     0
  3

 72
    65
 73
     0
 40
0.0
  0
LTYPE
  5
15
330
5
100
AcDbSymbolTableRecord
100
AcDbLinetypeTableRecord
  2
ByLayer
 70
     0
  3

 72
    65
 73
     0
 40
0.0
  0
LTYPE
  5
16
330
5
100
AcDbSymbolTableRecord
100
AcDbLinetypeTableRecord
  2
Continuous
 70
     0
  3
Solid line
 72
    65
 73
     0
 40
0.0
  0
LTYPE
  5
6E
330
5
100
AcDbSymbolTableRecord
100
AcDbLinetypeTableRecord
  2
HIDDEN
 70
     0
  3
Hidden __ __ __ __ __ __ __ __ __ __ __ __ __ __
 72
    65
 73
     2
 40
1.905
 49
1.27
 74
     0
 49
-0.635
 74
     0
  0
LTYPE
  5
6F
330
5
100
AcDbSymbolTableRecord
100
AcDbLinetypeTableRecord
  2
PHANTOM
 70
     0
  3
Phantom ______  __  __  ______  __  __  ______
 72
    65
 73
     6
 40
12.7
 49
6.35
 74
     0
 49
-1.27
 74
     0
 49
1.27
 74
     0
 49
-1.27
 74
     0
 49
1.27
 74
     0
 49
-1.27
 74
     0
  0
LTYPE
  5
70
330
5
100
AcDbSymbolTableRecord
100
AcDbLinetypeTableRecord
  2
CENTER
 70
     0
  3
Center ____ _ ____ _ ____ _ ____ _ ____ _ ____
 72
    65
 73
     4
 40
10.16
 49
6.35
 74
     0
 49
-1.27
 74
     0
 49
1.27
 74
     0
 49
-1.27
 74
     0
  0
LTYPE
  5
71
330
5
100
AcDbSymbolTableRecord
100
AcDbLinetypeTableRecord
  2
CENTERX2
 70
     0
  3
Center (2x) ________  __  ________  __  _____
 72
    65
 73
     4
 40
20.32
 49
12.7
 74
     0
 49
-2.54
 74
     0
 49
2.54
 74
     0
 49
-2.54
 74
     0
  0
LTYPE
  5
72
330
5
100
AcDbSymbolTableRecord
100
AcDbLinetypeTableRecord
  2
DOT2
 70
     0
  3
Dot (.5x) ........................................
 72
    65
 73
     2
 40
0.635
 49
0.0
 74
     0
 49
-0.635
 74
     0
  0
ENDTAB
  0
TABLE
  2
LAYER
  5
2
330
0
100
AcDbSymbolTable
 70
    17
  0
LAYER
  5
10
330
2
100
AcDbSymbolTableRecord
100
AcDbLayerTableRecord
  2
0
 70
     0
 62
     7
  6
Continuous
370
    -3
390
F
  0
LAYER
  5
73
330
2
100
AcDbSymbolTableRecord
100
AcDbLayerTableRecord
  2
FORMAT
 70
     0
 62
     7
  6
Continuous
370
    -3
390
F
  0
LAYER
  5
74
330
2
100
AcDbSymbolTableRecord
100
AcDbLayerTableRecord
  2
YARDIMCI_GEOMETRI
 70
     0
 62
    -6
  6
Continuous
290
     0
370
    -3
390
F
  0
LAYER
  5
75
330
2
100
AcDbSymbolTableRecord
100
AcDbLayerTableRecord
  2
SAYFA_CERCEVESI
 70
     0
 62
     7
  6
Continuous
370
    25
390
F
  0
LAYER
  5
76
330
2
100
AcDbSymbolTableRecord
100
AcDbLayerTableRecord
  2
ANTET
 70
     0
 62
     7
  6
Continuous
370
    -3
390
F
  0
LAYER
  5
77
330
2
100
AcDbSymbolTableRecord
100
AcDbLayerTableRecord
  2
OLCU
 70
     0
 62
   150
  6
Continuous
370
    -3
390
F
  0
LAYER
  5
78
330
2
100
AcDbSymbolTableRecord
100
AcDbLayerTableRecord
  2
METIN
 70
     0
 62
    96
  6
Continuous
370
    -3
390
F
  0
LAYER
  5
79
330
2
100
AcDbSymbolTableRecord
100
AcDbLayerTableRecord
  2
BALON
 70
     0
 62
     5
  6
Continuous
370
    -3
390
F
  0
LAYER
  5
7A
330
2
100
AcDbSymbolTableRecord
100
AcDbLayerTableRecord
  2
VURGU
 70
     0
 62
     7
  6
Continuous
370
    -3
390
F
  0
LAYER
  5
7B
330
2
100
AcDbSymbolTableRecord
100
AcDbLayerTableRecord
  2
SILIK
 70
     0
 62
     7
  6
Continuous
370
    -3
390
F
  0
LAYER
  5
7C
330
2
100
AcDbSymbolTableRecord
100
AcDbLayerTableRecord
  2
MODEL
 70
     0
 62
     7
  6
Continuous
370
    -3
390
F
  0
LAYER
  5
7D
330
2
100
AcDbSymbolTableRecord
100
AcDbLayerTableRecord
  2
DETAYLANDıRMA
 70
     0
 62
   190
  6
Continuous
370
    -3
390
F
  0
LAYER
  5
7E
330
2
100
AcDbSymbolTableRecord
100
AcDbLayerTableRecord
  2
TOLERANS
 70
     0
 62
   230
  6
Continuous
370
    -3
390
F
  0
LAYER
  5
7F
330
2
100
AcDbSymbolTableRecord
100
AcDbLayerTableRecord
  2
MERKEZ_CIZGILERI
 70
     0
 62
    30
  6
Continuous
370
    -3
390
F
  0
LAYER
  5
80
330
2
100
AcDbSymbolTableRecord
100
AcDbLayerTableRecord
  2
KESIT-DETAY_CIZGILERI
 70
     0
 62
     7
  6
Continuous
370
    -3
390
F
  0
LAYER
  5
81
330
2
100
AcDbSymbolTableRecord
100
AcDbLayerTableRecord
  2
\U+041E\U+0421\U+0415\U+0412\U+042B\U+0415
 70
     0
 62
     7
  6
Continuous
370
    -3
390
F
  0
LAYER
  5
82
330
2
100
AcDbSymbolTableRecord
100
AcDbLayerTableRecord
  2
\U+0412\U+041E\U+0414\U+042F\U+041D\U+042B\U+0415_\U+0417\U+041D\U+0410\U+041A\U+0418
 70
     0
 62
    11
  6
Continuous
370
    -3
390
F
  0
ENDTAB
  0
TABLE
  2
STYLE
  5
3
330
0
100
AcDbSymbolTable
 70
     1
  0
STYLE
  5
11
330
3
100
AcDbSymbolTableRecord
100
AcDbTextStyleTableRecord
  2
Standard
 70
     0
 40
0.0
 41
1.0
 50
0.0
 71
     0
 42
3.5
  3
txt
  4

  0
ENDTAB
  0
TABLE
  2
VIEW
  5
6
330
0
100
AcDbSymbolTable
 70
     0
  0
ENDTAB
  0
TABLE
  2
UCS
  5
7
330
0
100
AcDbSymbolTable
 70
     0
  0
ENDTAB
  0
TABLE
  2
APPID
  5
9
330
0
100
AcDbSymbolTable
 70
     1
  0
APPID
  5
12
330
9
100
AcDbSymbolTableRecord
100
AcDbRegAppTableRecord
  2
ACAD
 70
     0
  0
ENDTAB
  0
TABLE
  2
DIMSTYLE
  5
A
330
0
100
AcDbSymbolTable
 70
     1
100
AcDbDimStyleTable
  0
DIMSTYLE
105
27
330
A
100
AcDbSymbolTableRecord
100
AcDbDimStyleTableRecord
  2
ISO-25
 70
     0
 41
2.5
 42
0.625
 43
3.75
 44
1.25
 73
     0
 74
     0
 77
     1
 78
     8
140
2.5
141
2.5
143
0.0393700787
147
0.625
171
     3
172
     1
178
     0
271
     2
272
     2
274
     3
278
    44
283
     0
284
     8
340
11
  0
ENDTAB
  0
TABLE
  2
BLOCK_RECORD
  5
1
330
0
100
AcDbSymbolTable
 70
    10
  0
BLOCK_RECORD
  5
1F
330
1
100
AcDbSymbolTableRecord
100
AcDbBlockTableRecord
  2
*Model_Space
340
22
  0
BLOCK_RECORD
  5
1B
330
1
100
AcDbSymbolTableRecord
100
AcDbBlockTableRecord
  2
*Paper_Space
340
1E
  0
BLOCK_RECORD
  5
23
330
1
100
AcDbSymbolTableRecord
100
AcDbBlockTableRecord
  2
*Paper_Space0
340
26
  0
BLOCK_RECORD
  5
97
330
1
100
AcDbSymbolTableRecord
100
AcDbBlockTableRecord
  2
SW_CENTERMARKSYMBOL_0
340
0
102
{BLKREFS
331
A2
102
}
  0
BLOCK_RECORD
  5
A3
330
1
100
AcDbSymbolTableRecord
100
AcDbBlockTableRecord
  2
SW_CENTERMARKSYMBOL_1
340
0
102
{BLKREFS
331
AE
102
}
  0
BLOCK_RECORD
  5
AF
330
1
100
AcDbSymbolTableRecord
100
AcDbBlockTableRecord
  2
SW_CENTERMARKSYMBOL_2
340
0
102
{BLKREFS
331
BA
102
}
  0
BLOCK_RECORD
  5
BB
330
1
100
AcDbSymbolTableRecord
100
AcDbBlockTableRecord
  2
SW_CENTERMARKSYMBOL_3
340
0
102
{BLKREFS
331
C6
102
}
  0
BLOCK_RECORD
  5
C7
330
1
100
AcDbSymbolTableRecord
100
AcDbBlockTableRecord
  2
SW_CENTERMARKSYMBOL_4
340
0
102
{BLKREFS
331
D2
102
}
  0
BLOCK_RECORD
  5
D3
330
1
100
AcDbSymbolTableRecord
100
AcDbBlockTableRecord
  2
SW_CENTERMARKSYMBOL_5
340
0
102
{BLKREFS
331
DE
102
}
  0
BLOCK_RECORD
  5
DF
330
1
100
AcDbSymbolTableRecord
100
AcDbBlockTableRecord
  2
SW_CENTERMARKSYMBOL_6
340
0
102
{BLKREFS
331
EA
102
}
  0
BLOCK_RECORD
  5
EB
330
1
100
AcDbSymbolTableRecord
100
AcDbBlockTableRecord
  2
SW_CENTERMARKSYMBOL_7
340
0
102
{BLKREFS
331
F6
102
}
  0
BLOCK_RECORD
  5
F7
330
1
100
AcDbSymbolTableRecord
100
AcDbBlockTableRecord
  2
SW_CENTERMARKSYMBOL_8
340
0
102
{BLKREFS
331
102
102
}
  0
ENDTAB
  0
ENDSEC
  0
SECTION
  2
BLOCKS
  0
BLOCK
  5
20
330
1F
100
AcDbEntity
  8
0
100
AcDbBlockBegin
  2
*Model_Space
 70
     0
 10
0.0
 20
0.0
 30
0.0
  3
*Model_Space
  1

  0
ENDBLK
  5
21
330
1F
100
AcDbEntity
  8
0
100
AcDbBlockEnd
  0
BLOCK
  5
1C
330
1B
100
AcDbEntity
 67
     1
  8
0
100
AcDbBlockBegin
  2
*Paper_Space
 70
     0
 10
0.0
 20
0.0
 30
0.0
  3
*Paper_Space
  1

  0
ENDBLK
  5
1D
330
1B
100
AcDbEntity
 67
     1
  8
0
100
AcDbBlockEnd
  0
BLOCK
  5
24
330
23
100
AcDbEntity
  8
0
100
AcDbBlockBegin
  2
*Paper_Space0
 70
     0
 10
0.0
 20
0.0
 30
0.0
  3
*Paper_Space0
  1

  0
ENDBLK
  5
25
330
23
100
AcDbEntity
  8
0
100
AcDbBlockEnd
  0
BLOCK
  5
98
330
97
100
AcDbEntity
  8
0
100
AcDbBlockBegin
  2
SW_CENTERMARKSYMBOL_0
 70
     0
 10
0.0
 20
0.0
 30
0.0
  3
SW_CENTERMARKSYMBOL_0
  1

  0
LINE
  5
9A
330
97
100
AcDbEntity
  8
FORMAT
 62
     0
100
AcDbLine
 10
0.0
 20
0.0
 30
0.0
 11
0.0
 21
2.5
 31
0.0
  0
LINE
  5
9B
330
97
100
AcDbEntity
  8
FORMAT
 62
     0
100
AcDbLine
 10
0.0
 20
0.0
 30
0.0
 11
-2.5
 21
0.0
 31
0.0
  0
LINE
  5
9C
330
97
100
AcDbEntity
  8
FORMAT
 62
     0
100
AcDbLine
 10
0.0
 20
0.0
 30
0.0
 11
0.0
 21
-2.5
 31
0.0
  0
LINE
  5
9D
330
97
100
AcDbEntity
  8
FORMAT
 62
     0
100
AcDbLine
 10
0.0
 20
0.0
 30
0.0
 11
2.5
 21
0.0
 31
0.0
  0
LINE
  5
9E
330
97
100
AcDbEntity
  8
FORMAT
 62
     0
100
AcDbLine
 10
0.0
 20
5.0
 30
0.0
 11
0.0
 21
172.5
 31
0.0
  0
LINE
  5
9F
330
97
100
AcDbEntity
  8
FORMAT
 62
     0
100
AcDbLine
 10
-5.0
 20
0.0
 30
0.0
 11
-172.5
 21
0.0
 31
0.0
  0
LINE
  5
A0
330
97
100
AcDbEntity
  8
FORMAT
 62
     0
100
AcDbLine
 10
0.0
 20
-5.0
 30
0.0
 11
0.0
 21
-172.5
 31
0.0
  0
LINE
  5
A1
330
97
100
AcDbEntity
  8
FORMAT
 62
     0
100
AcDbLine
 10
5.0
 20
0.0
 30
0.0
 11
172.5
 21
0.0
 31
0.0
  0
ENDBLK
  5
99
330
97
100
AcDbEntity
  8
0
100
AcDbBlockEnd
  0
BLOCK
  5
A4
330
A3
100
AcDbEntity
  8
0
100
AcDbBlockBegin
  2
SW_CENTERMARKSYMBOL_1
 70
     0
 10
0.0
 20
0.0
 30
0.0
  3
SW_CENTERMARKSYMBOL_1
  1

  0
LINE
  5
A6
330
A3
100
AcDbEntity
  8
FORMAT
 62
     0
100
AcDbLine
 10
0.0
 20
0.0
 30
0.0
 11
0.0
 21
2.5
 31
0.0
  0
LINE
  5
A7
330
A3
100
AcDbEntity
  8
FORMAT
 62
     0
100
AcDbLine
 10
0.0
 20
0.0
 30
0.0
 11
-2.5
 21
0.0
 31
0.0
  0
LINE
  5
A8
330
A3
100
AcDbEntity
  8
FORMAT
 62
     0
100
AcDbLine
 10
0.0
 20
0.0
 30
0.0
 11
0.0
 21
-2.5
 31
0.0
  0
LINE
  5
A9
330
A3
100
AcDbEntity
  8
FORMAT
 62
     0
100
AcDbLine
 10
0.0
 20
0.0
 30
0.0
 11
2.5
 21
0.0
 31
0.0
  0
LINE
  5
AA
330
A3
100
AcDbEntity
  8
FORMAT
 62
     0
100
AcDbLine
 10
0.0
 20
5.0
 30
0.0
 11
0.0
 21
13.5
 31
0.0
  0
LINE
  5
AB
330
A3
100
AcDbEntity
  8
FORMAT
 62
     0
100
AcDbLine
 10
-5.0
 20
0.0
 30
0.0
 11
-13.5
 21
0.0
 31
0.0
  0
LINE
  5
AC
330
A3
100
AcDbEntity
  8
FORMAT
 62
     0
100
AcDbLine
 10
0.0
 20
-5.0
 30
0.0
 11
0.0
 21
-13.5
 31
0.0
  0
LINE
  5
AD
330
A3
100
AcDbEntity
  8
FORMAT
 62
     0
100
AcDbLine
 10
5.0
 20
0.0
 30
0.0
 11
13.5
 21
0.0
 31
0.0
  0
ENDBLK
  5
A5
330
A3
100
AcDbEntity
  8
0
100
AcDbBlockEnd
  0
BLOCK
  5
B0
330
AF
100
AcDbEntity
  8
0
100
AcDbBlockBegin
  2
SW_CENTERMARKSYMBOL_2
 70
     0
 10
0.0
 20
0.0
 30
0.0
  3
SW_CENTERMARKSYMBOL_2
  1

  0
LINE
  5
B2
330
AF
100
AcDbEntity
  8
FORMAT
 62
     0
100
AcDbLine
 10
0.0
 20
0.0
 30
0.0
 11
0.0
 21
2.5
 31
0.0
  0
LINE
  5
B3
330
AF
100
AcDbEntity
  8
FORMAT
 62
     0
100
AcDbLine
 10
0.0
 20
0.0
 30
0.0
 11
-2.5
 21
0.0
 31
0.0
  0
LINE
  5
B4
330
AF
100
AcDbEntity
  8
FORMAT
 62
     0
100
AcDbLine
 10
0.0
 20
0.0
 30
0.0
 11
0.0
 21
-2.5
 31
0.0
  0
LINE
  5
B5
330
AF
100
AcDbEntity
  8
FORMAT
 62
     0
100
AcDbLine
 10
0.0
 20
0.0
 30
0.0
 11
2.5
 21
0.0
 31
0.0
  0
LINE
  5
B6
330
AF
100
AcDbEntity
  8
FORMAT
 62
     0
100
AcDbLine
 10
0.0
 20
5.0
 30
0.0
 11
0.0
 21
13.5
 31
0.0
  0
LINE
  5
B7
330
AF
100
AcDbEntity
  8
FORMAT
 62
     0
100
AcDbLine
 10
-5.0
 20
0.0
 30
0.0
 11
-13.5
 21
0.0
 31
0.0
  0
LINE
  5
B8
330
AF
100
AcDbEntity
  8
FORMAT
 62
     0
100
AcDbLine
 10
0.0
 20
-5.0
 30
0.0
 11
0.0
 21
-13.5
 31
0.0
  0
LINE
  5
B9
330
AF
100
AcDbEntity
  8
FORMAT
 62
     0
100
AcDbLine
 10
5.0
 20
0.0
 30
0.0
 11
13.5
 21
0.0
 31
0.0
  0
ENDBLK
  5
B1
330
AF
100
AcDbEntity
  8
0
100
AcDbBlockEnd
  0
BLOCK
  5
BC
330
BB
100
AcDbEntity
  8
0
100
AcDbBlockBegin
  2
SW_CENTERMARKSYMBOL_3
 70
     0
 10
0.0
 20
0.0
 30
0.0
  3
SW_CENTERMARKSYMBOL_3
  1

  0
LINE
  5
BE
330
BB
100
AcDbEntity
  8
FORMAT
 62
     0
100
AcDbLine
 10
0.0
 20
0.0
 30
0.0
 11
0.0
 21
2.5
 31
0.0
  0
LINE
  5
BF
330
BB
100
AcDbEntity
  8
FORMAT
 62
     0
100
AcDbLine
 10
0.0
 20
0.0
 30
0.0
 11
-2.5
 21
0.0
 31
0.0
  0
LINE
  5
C0
330
BB
100
AcDbEntity
  8
FORMAT
 62
     0
100
AcDbLine
 10
0.0
 20
0.0
 30
0.0
 11
0.0
 21
-2.5
 31
0.0
  0
LINE
  5
C1
330
BB
100
AcDbEntity
  8
FORMAT
 62
     0
100
AcDbLine
 10
0.0
 20
0.0
 30
0.0
 11
2.5
 21
0.0
 31
0.0
  0
LINE
  5
C2
330
BB
100
AcDbEntity
  8
FORMAT
 62
     0
100
AcDbLine
 10
0.0
 20
5.0
 30
0.0
 11
0.0
 21
13.5
 31
0.0
  0
LINE
  5
C3
330
BB
100
AcDbEntity
  8
FORMAT
 62
     0
100
AcDbLine
 10
-5.0
 20
0.0
 30
0.0
 11
-13.5
 21
0.0
 31
0.0
  0
LINE
  5
C4
330
BB
100
AcDbEntity
  8
FORMAT
 62
     0
100
AcDbLine
 10
0.0
 20
-5.0
 30
0.0
 11
0.0
 21
-13.5
 31
0.0
  0
LINE
  5
C5
330
BB
100
AcDbEntity
  8
FORMAT
 62
     0
100
AcDbLine
 10
5.0
 20
0.0
 30
0.0
 11
13.5
 21
0.0
 31
0.0
  0
ENDBLK
  5
BD
330
BB
100
AcDbEntity
  8
0
100
AcDbBlockEnd
  0
BLOCK
  5
C8
330
C7
100
AcDbEntity
  8
0
100
AcDbBlockBegin
  2
SW_CENTERMARKSYMBOL_4
 70
     0
 10
0.0
 20
0.0
 30
0.0
  3
SW_CENTERMARKSYMBOL_4
  1

  0
LINE
  5
CA
330
C7
100
AcDbEntity
  8
FORMAT
 62
     0
100
AcDbLine
 10
0.0
 20
0.0
 30
0.0
 11
0.0
 21
2.5
 31
0.0
  0
LINE
  5
CB
330
C7
100
AcDbEntity
  8
FORMAT
 62
     0
100
AcDbLine
 10
0.0
 20
0.0
 30
0.0
 11
-2.5
 21
0.0
 31
0.0
  0
LINE
  5
CC
330
C7
100
AcDbEntity
  8
FORMAT
 62
     0
100
AcDbLine
 10
0.0
 20
0.0
 30
0.0
 11
0.0
 21
-2.5
 31
0.0
  0
LINE
  5
CD
330
C7
100
AcDbEntity
  8
FORMAT
 62
     0
100
AcDbLine
 10
0.0
 20
0.0
 30
0.0
 11
2.5
 21
0.0
 31
0.0
  0
LINE
  5
CE
330
C7
100
AcDbEntity
  8
FORMAT
 62
     0
100
AcDbLine
 10
0.0
 20
5.0
 30
0.0
 11
0.0
 21
13.5
 31
0.0
  0
LINE
  5
CF
330
C7
100
AcDbEntity
  8
FORMAT
 62
     0
100
AcDbLine
 10
-5.0
 20
0.0
 30
0.0
 11
-13.5
 21
0.0
 31
0.0
  0
LINE
  5
D0
330
C7
100
AcDbEntity
  8
FORMAT
 62
     0
100
AcDbLine
 10
0.0
 20
-5.0
 30
0.0
 11
0.0
 21
-13.5
 31
0.0
  0
LINE
  5
D1
330
C7
100
AcDbEntity
  8
FORMAT
 62
     0
100
AcDbLine
 10
5.0
 20
0.0
 30
0.0
 11
13.5
 21
0.0
 31
0.0
  0
ENDBLK
  5
C9
330
C7
100
AcDbEntity
  8
0
100
AcDbBlockEnd
  0
BLOCK
  5
D4
330
D3
100
AcDbEntity
  8
0
100
AcDbBlockBegin
  2
SW_CENTERMARKSYMBOL_5
 70
     0
 10
0.0
 20
0.0
 30
0.0
  3
SW_CENTERMARKSYMBOL_5
  1

  0
LINE
  5
D6
330
D3
100
AcDbEntity
  8
FORMAT
 62
     0
100
AcDbLine
 10
0.0
 20
0.0
 30
0.0
 11
0.0
 21
2.5
 31
0.0
  0
LINE
  5
D7
330
D3
100
AcDbEntity
  8
FORMAT
 62
     0
100
AcDbLine
 10
0.0
 20
0.0
 30
0.0
 11
-2.5
 21
0.0
 31
0.0
  0
LINE
  5
D8
330
D3
100
AcDbEntity
  8
FORMAT
 62
     0
100
AcDbLine
 10
0.0
 20
0.0
 30
0.0
 11
0.0
 21
-2.5
 31
0.0
  0
LINE
  5
D9
330
D3
100
AcDbEntity
  8
FORMAT
 62
     0
100
AcDbLine
 10
0.0
 20
0.0
 30
0.0
 11
2.5
 21
0.0
 31
0.0
  0
LINE
  5
DA
330
D3
100
AcDbEntity
  8
FORMAT
 62
     0
100
AcDbLine
 10
0.0
 20
5.0
 30
0.0
 11
0.0
 21
14.5
 31
0.0
  0
LINE
  5
DB
330
D3
100
AcDbEntity
  8
FORMAT
 62
     0
100
AcDbLine
 10
-5.0
 20
0.0
 30
0.0
 11
-14.5
 21
0.0
 31
0.0
  0
LINE
  5
DC
330
D3
100
AcDbEntity
  8
FORMAT
 62
     0
100
AcDbLine
 10
0.0
 20
-5.0
 30
0.0
 11
0.0
 21
-14.5
 31
0.0
  0
LINE
  5
DD
330
D3
100
AcDbEntity
  8
FORMAT
 62
     0
100
AcDbLine
 10
5.0
 20
0.0
 30
0.0
 11
14.5
 21
0.0
 31
0.0
  0
ENDBLK
  5
D5
330
D3
100
AcDbEntity
  8
0
100
AcDbBlockEnd
  0
BLOCK
  5
E0
330
DF
100
AcDbEntity
  8
0
100
AcDbBlockBegin
  2
SW_CENTERMARKSYMBOL_6
 70
     0
 10
0.0
 20
0.0
 30
0.0
  3
SW_CENTERMARKSYMBOL_6
  1

  0
LINE
  5
E2
330
DF
100
AcDbEntity
  8
FORMAT
 62
     0
100
AcDbLine
 10
0.0
 20
0.0
 30
0.0
 11
0.0
 21
2.5
 31
0.0
  0
LINE
  5
E3
330
DF
100
AcDbEntity
  8
FORMAT
 62
     0
100
AcDbLine
 10
0.0
 20
0.0
 30
0.0
 11
-2.5
 21
0.0
 31
0.0
  0
LINE
  5
E4
330
DF
100
AcDbEntity
  8
FORMAT
 62
     0
100
AcDbLine
 10
0.0
 20
0.0
 30
0.0
 11
0.0
 21
-2.5
 31
0.0
  0
LINE
  5
E5
330
DF
100
AcDbEntity
  8
FORMAT
 62
     0
100
AcDbLine
 10
0.0
 20
0.0
 30
0.0
 11
2.5
 21
0.0
 31
0.0
  0
LINE
  5
E6
330
DF
100
AcDbEntity
  8
FORMAT
 62
     0
100
AcDbLine
 10
0.0
 20
5.0
 30
0.0
 11
0.0
 21
14.5
 31
0.0
  0
LINE
  5
E7
330
DF
100
AcDbEntity
  8
FORMAT
 62
     0
100
AcDbLine
 10
-5.0
 20
0.0
 30
0.0
 11
-14.5
 21
0.0
 31
0.0
  0
LINE
  5
E8
330
DF
100
AcDbEntity
  8
FORMAT
 62
     0
100
AcDbLine
 10
0.0
 20
-5.0
 30
0.0
 11
0.0
 21
-14.5
 31
0.0
  0
LINE
  5
E9
330
DF
100
AcDbEntity
  8
FORMAT
 62
     0
100
AcDbLine
 10
5.0
 20
0.0
 30
0.0
 11
14.5
 21
0.0
 31
0.0
  0
ENDBLK
  5
E1
330
DF
100
AcDbEntity
  8
0
100
AcDbBlockEnd
  0
BLOCK
  5
EC
330
EB
100
AcDbEntity
  8
0
100
AcDbBlockBegin
  2
SW_CENTERMARKSYMBOL_7
 70
     0
 10
0.0
 20
0.0
 30
0.0
  3
SW_CENTERMARKSYMBOL_7
  1

  0
LINE
  5
EE
330
EB
100
AcDbEntity
  8
FORMAT
 62
     0
100
AcDbLine
 10
0.0
 20
0.0
 30
0.0
 11
0.0
 21
2.5
 31
0.0
  0
LINE
  5
EF
330
EB
100
AcDbEntity
  8
FORMAT
 62
     0
100
AcDbLine
 10
0.0
 20
0.0
 30
0.0
 11
-2.5
 21
0.0
 31
0.0
  0
LINE
  5
F0
330
EB
100
AcDbEntity
  8
FORMAT
 62
     0
100
AcDbLine
 10
0.0
 20
0.0
 30
0.0
 11
0.0
 21
-2.5
 31
0.0
  0
LINE
  5
F1
330
EB
100
AcDbEntity
  8
FORMAT
 62
     0
100
AcDbLine
 10
0.0
 20
0.0
 30
0.0
 11
2.5
 21
0.0
 31
0.0
  0
LINE
  5
F2
330
EB
100
AcDbEntity
  8
FORMAT
 62
     0
100
AcDbLine
 10
0.0
 20
5.0
 30
0.0
 11
0.0
 21
14.5
 31
0.0
  0
LINE
  5
F3
330
EB
100
AcDbEntity
  8
FORMAT
 62
     0
100
AcDbLine
 10
-5.0
 20
0.0
 30
0.0
 11
-14.5
 21
0.0
 31
0.0
  0
LINE
  5
F4
330
EB
100
AcDbEntity
  8
FORMAT
 62
     0
100
AcDbLine
 10
0.0
 20
-5.0
 30
0.0
 11
0.0
 21
-14.5
 31
0.0
  0
LINE
  5
F5
330
EB
100
AcDbEntity
  8
FORMAT
 62
     0
100
AcDbLine
 10
5.0
 20
0.0
 30
0.0
 11
14.5
 21
0.0
 31
0.0
  0
ENDBLK
  5
ED
330
EB
100
AcDbEntity
  8
0
100
AcDbBlockEnd
  0
BLOCK
  5
F8
330
F7
100
AcDbEntity
  8
0
100
AcDbBlockBegin
  2
SW_CENTERMARKSYMBOL_8
 70
     0
 10
0.0
 20
0.0
 30
0.0
  3
SW_CENTERMARKSYMBOL_8
  1

  0
LINE
  5
FA
330
F7
100
AcDbEntity
  8
FORMAT
 62
     0
100
AcDbLine
 10
0.0
 20
0.0
 30
0.0
 11
0.0
 21
2.5
 31
0.0
  0
LINE
  5
FB
330
F7
100
AcDbEntity
  8
FORMAT
 62
     0
100
AcDbLine
 10
0.0
 20
0.0
 30
0.0
 11
-2.5
 21
0.0
 31
0.0
  0
LINE
  5
FC
330
F7
100
AcDbEntity
  8
FORMAT
 62
     0
100
AcDbLine
 10
0.0
 20
0.0
 30
0.0
 11
0.0
 21
-2.5
 31
0.0
  0
LINE
  5
FD
330
F7
100
AcDbEntity
  8
FORMAT
 62
     0
100
AcDbLine
 10
0.0
 20
0.0
 30
0.0
 11
2.5
 21
0.0
 31
0.0
  0
LINE
  5
FE
330
F7
100
AcDbEntity
  8
FORMAT
 62
     0
100
AcDbLine
 10
0.0
 20
5.0
 30
0.0
 11
0.0
 21
14.5
 31
0.0
  0
LINE
  5
FF
330
F7
100
AcDbEntity
  8
FORMAT
 62
     0
100
AcDbLine
 10
-5.0
 20
0.0
 30
0.0
 11
-14.5
 21
0.0
 31
0.0
  0
LINE
  5
100
330
F7
100
AcDbEntity
  8
FORMAT
 62
     0
100
AcDbLine
 10
0.0
 20
-5.0
 30
0.0
 11
0.0
 21
-14.5
 31
0.0
  0
LINE
  5
101
330
F7
100
AcDbEntity
  8
FORMAT
 62
     0
100
AcDbLine
 10
5.0
 20
0.0
 30
0.0
 11
14.5
 21
0.0
 31
0.0
  0
ENDBLK
  5
F9
330
F7
100
AcDbEntity
  8
0
100
AcDbBlockEnd
  0
ENDSEC
  0
SECTION
  2
ENTITIES
  0
CIRCLE
  5
83
330
1F
100
AcDbEntity
  8
0
  6
Continuous
 62
     7
370
    25
100
AcDbCircle
 10
-12.3894061796
 20
115.6909958732
 30
0.0
 40
12.00000000000001
  0
CIRCLE
  5
84
330
1F
100
AcDbEntity
  8
0
  6
Continuous
 62
     7
370
    25
100
AcDbCircle
 10
239.4088440454
 20
11.3927456482
 30
0.0
 40
12.0
  0
CIRCLE
  5
85
330
1F
100
AcDbEntity
  8
0
  6
Continuous
 62
     7
370
    25
100
AcDbCircle
 10
239.4088440454
 20
219.9892460982
 30
0.0
 40
11.99999999999997
  0
CIRCLE
  5
86
330
1F
100
AcDbEntity
  8
0
  6
Continuous
 62
     7
370
    25
100
AcDbCircle
 10
135.1105938204
 20
263.1909958732
 30
0.0
 40
12.0
  0
CIRCLE
  5
87
330
1F
100
AcDbEntity
  8
0
  6
Continuous
 62
     7
370
    25
100
AcDbCircle
 10
135.1105938204
 20
115.6909958732
 30
0.0
 40
169.0
  0
CIRCLE
  5
88
330
1F
100
AcDbEntity
  8
0
  6
Continuous
 62
     7
370
    25
100
AcDbCircle
 10
135.1105938204
 20
115.6909958732
 30
0.0
 40
120.0
  0
CIRCLE
  5
89
330
1F
100
AcDbEntity
  8
0
  6
Continuous
 62
     7
370
    25
100
AcDbCircle
 10
135.1105938204
 20
-31.8090041268
 30
0.0
 40
12.0
  0
CIRCLE
  5
8A
330
1F
100
AcDbEntity
  8
0
  6
Continuous
 62
     7
370
    25
100
AcDbCircle
 10
282.6105938204
 20
115.6909958732
 30
0.0
 40
12.0
  0
CIRCLE
  5
8B
330
1F
100
AcDbEntity
  8
0
  6
Continuous
 62
     7
370
    25
100
AcDbCircle
 10
30.8123435954
 20
11.3927456482
 30
0.0
 40
11.99999999999998
  0
CIRCLE
  5
8C
330
1F
100
AcDbEntity
  8
0
  6
Continuous
 62
     7
370
    25
100
AcDbCircle
 10
30.8123435954
 20
219.9892460982
 30
0.0
 40
11.99999999999998
  0
CIRCLE
  5
8D
330
1F
100
AcDbEntity
  8
0
  6
Continuous
 62
     7
370
    25
100
AcDbCircle
 10
135.1105938204
 20
-31.8090041268
 30
0.0
 40
11.0
  0
CIRCLE
  5
8E
330
1F
100
AcDbEntity
  8
0
  6
Continuous
 62
     7
370
    25
100
AcDbCircle
 10
135.1105938204
 20
115.6909958732
 30
0.0
 40
119.0
  0
CIRCLE
  5
8F
330
1F
100
AcDbEntity
  8
0
  6
Continuous
 62
     7
370
    25
100
AcDbCircle
 10
135.1105938204
 20
115.6909958732
 30
0.0
 40
170.0
  0
CIRCLE
  5
90
330
1F
100
AcDbEntity
  8
0
  6
Continuous
 62
     7
370
    25
100
AcDbCircle
 10
135.1105938204
 20
263.1909958732
 30
0.0
 40
11.0
  0
CIRCLE
  5
91
330
1F
100
AcDbEntity
  8
0
  6
Continuous
 62
     7
370
    25
100
AcDbCircle
 10
239.4088440454
 20
219.9892460982
 30
0.0
 40
11.00000000000003
  0
CIRCLE
  5
92
330
1F
100
AcDbEntity
  8
0
  6
Continuous
 62
     7
370
    25
100
AcDbCircle
 10
30.8123435954
 20
219.9892460982
 30
0.0
 40
11.0
  0
CIRCLE
  5
93
330
1F
100
AcDbEntity
  8
0
  6
Continuous
 62
     7
370
    25
100
AcDbCircle
 10
30.8123435954
 20
11.3927456482
 30
0.0
 40
11.0
  0
CIRCLE
  5
94
330
1F
100
AcDbEntity
  8
0
  6
Continuous
 62
     7
370
    25
100
AcDbCircle
 10
282.6105938204
 20
115.6909958732
 30
0.0
 40
11.0
  0
CIRCLE
  5
95
330
1F
100
AcDbEntity
  8
0
  6
Continuous
 62
     7
370
    25
100
AcDbCircle
 10
-12.3894061796
 20
115.6909958732
 30
0.0
 40
11.00000000000001
  0
CIRCLE
  5
96
330
1F
100
AcDbEntity
  8
0
  6
Continuous
 62
     7
370
    25
100
AcDbCircle
 10
239.4088440454
 20
11.3927456482
 30
0.0
 40
11.0
  0
INSERT
  5
A2
330
1F
100
AcDbEntity
  8
FORMAT
 62
     7
100
AcDbBlockReference
  2
SW_CENTERMARKSYMBOL_0
 10
135.1105938204
 20
115.6909958732
 30
0.0
  0
INSERT
  5
AE
330
1F
100
AcDbEntity
  8
FORMAT
 62
     7
100
AcDbBlockReference
  2
SW_CENTERMARKSYMBOL_1
 10
135.1105938204
 20
263.1909958732
 30
0.0
  0
INSERT
  5
BA
330
1F
100
AcDbEntity
  8
FORMAT
 62
     7
100
AcDbBlockReference
  2
SW_CENTERMARKSYMBOL_2
 10
239.4088440454
 20
219.9892460982
 30
0.0
  0
INSERT
  5
C6
330
1F
100
AcDbEntity
  8
FORMAT
 62
     7
100
AcDbBlockReference
  2
SW_CENTERMARKSYMBOL_3
 10
282.6105938204
 20
115.6909958732
 30
0.0
  0
INSERT
  5
D2
330
1F
100
AcDbEntity
  8
FORMAT
 62
     7
100
AcDbBlockReference
  2
SW_CENTERMARKSYMBOL_4
 10
239.4088440454
 20
11.3927456482
 30
0.0
  0
INSERT
  5
DE
330
1F
100
AcDbEntity
  8
FORMAT
 62
     7
100
AcDbBlockReference
  2
SW_CENTERMARKSYMBOL_5
 10
-12.3894061796
 20
115.6909958732
 30
0.0
  0
INSERT
  5
EA
330
1F
100
AcDbEntity
  8
FORMAT
 62
     7
100
AcDbBlockReference
  2
SW_CENTERMARKSYMBOL_6
 10
30.8123435954
 20
11.3927456482
 30
0.0
  0
INSERT
  5
F6
330
1F
100
AcDbEntity
  8
FORMAT
 62
     7
100
AcDbBlockReference
  2
SW_CENTERMARKSYMBOL_7
 10
30.8123435954
 20
219.9892460982
 30
0.0
  0
INSERT
  5
102
330
1F
100
AcDbEntity
  8
FORMAT
 62
     7
100
AcDbBlockReference
  2
SW_CENTERMARKSYMBOL_8
 10
135.1105938204
 20
-31.8090041268
 30
0.0
  0
LINE
  5
103
330
1F
100
AcDbEntity
  8
0
  6
Continuous
 62
     7
370
    25
100
AcDbLine
 10
-236.5809389861
 20
285.6909958732
 30
0.0
 11
-261.5809389861
 21
285.6909958732
 31
0.0
  0
LINE
  5
104
330
1F
100
AcDbEntity
  8
0
  6
Continuous
 62
     7
370
    25
100
AcDbLine
 10
-261.5809389861
 20
-54.3090041268
 30
0.0
 11
-236.5809389861
 21
-54.3090041268
 31
0.0
  0
ARC
  5
105
330
1F
100
AcDbEntity
  8
0
  6
Continuous
 62
     7
370
    25
100
AcDbCircle
 10
-236.5809389861
 20
-53.3090041268
 30
0.0
 40
1.0
100
AcDbArc
 50
270.0
 51
0.0
  0
ARC
  5
106
330
1F
100
AcDbEntity
  8
0
  6
Continuous
 62
     7
370
    25
100
AcDbCircle
 10
-236.5809389861
 20
284.6909958732
 30
0.0
 40
1.0
100
AcDbArc
 50
0.0
 51
90.0
  0
ARC
  5
107
330
1F
100
AcDbEntity
  8
0
  6
Continuous
 62
     7
370
    25
100
AcDbCircle
 10
-261.5809389861
 20
-53.3090041268
 30
0.0
 40
1.0
100
AcDbArc
 50
180.0
 51
270.0
  0
ARC
  5
108
330
1F
100
AcDbEntity
  8
0
  6
Continuous
 62
     7
370
    25
100
AcDbCircle
 10
-261.5809389861
 20
284.6909958732
 30
0.0
 40
1.0
100
AcDbArc
 50
90.0
 51
180.0
  0
LINE
  5
109
330
1F
100
AcDbEntity
  8
0
  6
Continuous
 62
     7
370
    25
100
AcDbLine
 10
-235.5809389861
 20
115.6909958732
 30
0.0
 11
-235.5809389861
 21
-53.3090041268
 31
0.0
  0
LINE
  5
10A
330
1F
100
AcDbEntity
  8
0
  6
Continuous
 62
     7
370
    25
100
AcDbLine
 10
-235.5809389861
 20
284.6909958732
 30
0.0
 11
-235.5809389861
 21
115.6909958732
 31
0.0
  0
LINE
  5
10B
330
1F
100
AcDbEntity
  8
0
  6
Continuous
 62
     7
370
    25
100
AcDbLine
 10
-262.5809389861
 20
115.6909958732
 30
0.0
 11
-262.5809389861
 21
284.6909958732
 31
0.0
  0
LINE
  5
10C
330
1F
100
AcDbEntity
  8
0
  6
Continuous
 62
     7
370
    25
100
AcDbLine
 10
-262.5809389861
 20
-53.3090041268
 30
0.0
 11
-262.5809389861
 21
115.6909958732
 31
0.0
  0
LINE
  5
10D
330
1F
100
AcDbEntity
  8
0
  6
Continuous
 62
     1
370
    25
100
AcDbLine
 10
-261.5809389861
 20
115.6909958732
 30
0.0
 11
-261.5809389861
 21
-54.3090041268
 31
0.0
  0
LINE
  5
10E
330
1F
100
AcDbEntity
  8
0
  6
Continuous
 62
     1
370
    25
100
AcDbLine
 10
-261.5809389861
 20
285.6909958732
 30
0.0
 11
-261.5809389861
 21
115.6909958732
 31
0.0
  0
LINE
  5
10F
330
1F
100
AcDbEntity
  8
0
  6
Continuous
 62
     1
370
    25
100
AcDbLine
 10
-236.5809389861
 20
115.6909958732
 30
0.0
 11
-236.5809389861
 21
285.6909958732
 31
0.0
  0
LINE
  5
110
330
1F
100
AcDbEntity
  8
0
  6
Continuous
 62
     1
370
    25
100
AcDbLine
 10
-236.5809389861
 20
-54.3090041268
 30
0.0
 11
-236.5809389861
 21
115.6909958732
 31
0.0
  0
LINE
  5
111
330
1F
100
AcDbEntity
  8
0
  6
Continuous
 62
     7
370
    25
100
AcDbLine
 10
516.7627739377
 20
-54.3090041268
 30
0.0
 11
541.7627739377
 21
-54.3090041268
 31
0.0
  0
LINE
  5
112
330
1F
100
AcDbEntity
  8
0
  6
Continuous
 62
     7
370
    25
100
AcDbLine
 10
541.7627739377
 20
285.6909958732
 30
0.0
 11
516.7627739377
 21
285.6909958732
 31
0.0
  0
ARC
  5
113
330
1F
100
AcDbEntity
  8
0
  6
Continuous
 62
     7
370
    25
100
AcDbCircle
 10
516.7627739377
 20
284.6909958732
 30
0.0
 40
1.0
100
AcDbArc
 50
90.0
 51
180.0
  0
ARC
  5
114
330
1F
100
AcDbEntity
  8
0
  6
Continuous
 62
     7
370
    25
100
AcDbCircle
 10
516.7627739377
 20
-53.3090041268
 30
0.0
 40
1.0
100
AcDbArc
 50
180.0
 51
270.0
  0
ARC
  5
115
330
1F
100
AcDbEntity
  8
0
  6
Continuous
 62
     7
370
    25
100
AcDbCircle
 10
541.7627739377
 20
284.6909958732
 30
0.0
 40
1.0
100
AcDbArc
 50
0.0
 51
90.0
  0
ARC
  5
116
330
1F
100
AcDbEntity
  8
0
  6
Continuous
 62
     7
370
    25
100
AcDbCircle
 10
541.7627739377
 20
-53.3090041268
 30
0.0
 40
1.0
100
AcDbArc
 50
270.0
 51
0.0
  0
LINE
  5
117
330
1F
100
AcDbEntity
  8
0
  6
Continuous
 62
     7
370
    25
100
AcDbLine
 10
515.7627739377
 20
-53.3090041268
 30
0.0
 11
515.7627739377
 21
284.6909958732
 31
0.0
  0
LINE
  5
118
330
1F
100
AcDbEntity
  8
0
  6
Continuous
 62
     7
370
    25
100
AcDbLine
 10
542.7627739377
 20
284.6909958732
 30
0.0
 11
542.7627739377
 21
-53.3090041268
 31
0.0
  0
LINE
  5
119
330
1F
100
AcDbEntity
  8
0
  6
Continuous
 62
     1
370
    25
100
AcDbLine
 10
541.7627739377
 20
-54.3090041268
 30
0.0
 11
541.7627739377
 21
285.6909958732
 31
0.0
  0
LINE
  5
11A
330
1F
100
AcDbEntity
  8
0
  6
Continuous
 62
     1
370
    25
100
AcDbLine
 10
516.7627739377
 20
285.6909958732
 30
0.0
 11
516.7627739377
 21
-54.3090041268
 31
0.0
  0
LINE
  5
11B
330
1F
100
AcDbEntity
  8
0
  6
Continuous
 62
     7
370
    25
100
AcDbLine
 10
305.1105938204
 20
396.2955809305
 30
0.0
 11
305.1105938204
 21
421.2955809305
 31
0.0
  0
LINE
  5
11C
330
1F
100
AcDbEntity
  8
0
  6
Continuous
 62
     7
370
    25
100
AcDbLine
 10
-34.8894061796
 20
421.2955809305
 30
0.0
 11
-34.8894061796
 21
396.2955809305
 31
0.0
  0
ARC
  5
11D
330
1F
100
AcDbEntity
  8
0
  6
Continuous
 62
     7
370
    25
100
AcDbCircle
 10
-33.8894061796
 20
396.2955809305
 30
0.0
 40
1.000000000000007
100
AcDbArc
 50
180.0
 51
270.0
  0
ARC
  5
11E
330
1F
100
AcDbEntity
  8
0
  6
Continuous
 62
     7
370
    25
100
AcDbCircle
 10
304.1105938204
 20
396.2955809305
 30
0.0
 40
1.0
100
AcDbArc
 50
270.0
 51
0.0
  0
ARC
  5
11F
330
1F
100
AcDbEntity
  8
0
  6
Continuous
 62
     7
370
    25
100
AcDbCircle
 10
-33.8894061796
 20
421.2955809305
 30
0.0
 40
1.000000000000007
100
AcDbArc
 50
90.0
 51
180.0
  0
ARC
  5
120
330
1F
100
AcDbEntity
  8
0
  6
Continuous
 62
     7
370
    25
100
AcDbCircle
 10
304.1105938204
 20
421.2955809305
 30
0.0
 40
1.0
100
AcDbArc
 50
0.0
 51
90.0
  0
LINE
  5
121
330
1F
100
AcDbEntity
  8
0
  6
Continuous
 62
     7
370
    25
100
AcDbLine
 10
304.1105938204
 20
395.2955809305
 30
0.0
 11
-33.8894061796
 21
395.2955809305
 31
0.0
  0
LINE
  5
122
330
1F
100
AcDbEntity
  8
0
  6
Continuous
 62
     7
370
    25
100
AcDbLine
 10
-33.8894061788
 20
422.2955809305
 30
0.0
 11
304.1105938204
 21
422.2955809305
 31
0.0
  0
LINE
  5
123
330
1F
100
AcDbEntity
  8
0
  6
Continuous
 62
     1
370
    25
100
AcDbLine
 10
305.1105938204
 20
421.2955809305
 30
0.0
 11
-34.8894061796
 21
421.2955809305
 31
0.0
  0
LINE
  5
124
330
1F
100
AcDbEntity
  8
0
  6
Continuous
 62
     1
370
    25
100
AcDbLine
 10
-34.8894061796
 20
396.2955809305
 30
0.0
 11
305.1105938204
 21
396.2955809305
 31
0.0
  0
LINE
  5
125
330
1F
100
AcDbEntity
  8
0
  6
Continuous
 62
     7
370
    25
100
AcDbLine
 10
-34.8894061796
 20
-293.2887086443
 30
0.0
 11
-34.8894061796
 21
-318.2887086443
 31
0.0
  0
LINE
  5
126
330
1F
100
AcDbEntity
  8
0
  6
Continuous
 62
     7
370
    25
100
AcDbLine
 10
305.1105938204
 20
-318.2887086443
 30
0.0
 11
305.1105938204
 21
-293.2887086443
 31
0.0
  0
ARC
  5
127
330
1F
100
AcDbEntity
  8
0
  6
Continuous
 62
     7
370
    25
100
AcDbCircle
 10
304.1105938204
 20
-293.2887086443
 30
0.0
 40
1.0
100
AcDbArc
 50
0.0
 51
90.0
  0
ARC
  5
128
330
1F
100
AcDbEntity
  8
0
  6
Continuous
 62
     7
370
    25
100
AcDbCircle
 10
-33.8894061796
 20
-293.2887086443
 30
0.0
 40
1.000000000000007
100
AcDbArc
 50
90.0
 51
180.0
  0
ARC
  5
129
330
1F
100
AcDbEntity
  8
0
  6
Continuous
 62
     7
370
    25
100
AcDbCircle
 10
304.1105938204
 20
-318.2887086443
 30
0.0
 40
1.0
100
AcDbArc
 50
270.0
 51
0.0
  0
ARC
  5
12A
330
1F
100
AcDbEntity
  8
0
  6
Continuous
 62
     7
370
    25
100
AcDbCircle
 10
-33.8894061796
 20
-318.2887086443
 30
0.0
 40
1.000000000000007
100
AcDbArc
 50
180.0
 51
270.0
  0
LINE
  5
12B
330
1F
100
AcDbEntity
  8
0
  6
Continuous
 62
     7
370
    25
100
AcDbLine
 10
-33.8894061788
 20
-292.2887086443
 30
0.0
 11
304.1105938204
 21
-292.2887086443
 31
0.0
  0
LINE
  5
12C
330
1F
100
AcDbEntity
  8
0
  6
Continuous
 62
     7
370
    25
100
AcDbLine
 10
304.1105938204
 20
-319.2887086443
 30
0.0
 11
-33.8894061796
 21
-319.2887086443
 31
0.0
  0
LINE
  5
12D
330
1F
100
AcDbEntity
  8
0
  6
Continuous
 62
     1
370
    25
100
AcDbLine
 10
-34.8894061796
 20
-318.2887086443
 30
0.0
 11
305.1105938204
 21
-318.2887086443
 31
0.0
  0
LINE
  5
12E
330
1F
100
AcDbEntity
  8
0
  6
Continuous
 62
     1
370
    25
100
AcDbLine
 10
305.1105938204
 20
-293.2887086443
 30
0.0
 11
-34.8894061796
 21
-293.2887086443
 31
0.0
  0
SPLINE
  5
12F
330
1F
100
AcDbEntity
  8
0
  6
Continuous
 62
     7
370
    25
100
AcDbSpline
210
0.0
220
0.0
230
1.0
 70
     8
 71
     3
 72
    71
 73
    67
 74
     0
 42
0.00000001
 43
0.00000001
 40
0.0
 40
0.0
 40
0.0
 40
0.0
 40
0.0128841316962945
 40
0.0285943272894662
 40
0.0443151279437798
 40
0.0600458382602922
 40
0.0757854042863428
 40
0.0915325698491705
 40
0.1072860095295989
 40
0.1230444296909944
 40
0.1388066366411768
 40
0.1545715758835429
 40
0.1703383486847314
 40
0.1861062125489204
 40
0.2018745714327596
 40
0.2176428575960255
 40
0.2334107267632319
 40
0.2491779505803218
 40
0.2649443738546173
 40
0.2807099002598193
 40
0.2964744801422406
 40
0.3122381003615646
 40
0.3280007759854298
 40
0.3437625436060021
 40
0.3595234560357272
 40
0.3752835781513302
 40
0.3910429836783296
 40
0.4068017527358442
 40
0.4225599699890119
 40
0.4383177232818122
 40
0.4540751026453756
 40
0.4698321995955429
 40
0.4855891066488006
 40
0.5013459169976201
 40
0.5171027242953512
 40
0.5328596027733753
 40
0.5486166350352061
 40
0.5643739153595594
 40
0.5801315379634212
 40
0.5958895967566051
 40
0.6116481849734221
 40
0.6274073946267085
 40
0.6431673157209935
 40
0.6589280351482576
 40
0.6746896351729196
 40
0.6904521913923686
 40
0.7062157700351605
 40
0.7219804244318025
 40
0.7377461904637841
 40
0.7535130807679595
 40
0.7692810774503505
 40
0.7850501230539435
 40
0.8008201095420104
 40
0.8165908651216606
 40
0.8323621388694803
 40
0.8481335167270878
 40
0.8639044215621955
 40
0.879674208942087
 40
0.895442079086859
 40
0.9112070679751588
 40
0.9269680501281126
 40
0.9427237593325207
 40
0.9584728342015538
 40
0.9742138947626747
 40
0.9899456533775794
 40
0.9999999999999999
 40
0.9999999999999999
 40
0.9999999999999999
 40
0.9999999999999999
 10
571.2657734084786
 20
-97.12009207295227
 30
0.0
 10
570.0775040710025
 20
-96.99269833980875
 30
0.0
 10
567.4403250088235
 20
-96.70996775415503
 30
0.0
 10
563.2325418356236
 20
-96.59771154101546
 30
0.0
 10
558.6746971033733
 20
-96.72074787468881
 30
0.0
 10
554.0278050321383
 20
-97.1232760470911
 30
0.0
 10
549.3039484085526
 20
-97.79475661815981
 30
0.0
 10
544.510511604501
 20
-98.73675070343619
 30
0.0
 10
539.6563217535897
 20
-99.94690541168272
 30
0.0
 10
534.7499560661694
 20
-101.4232582855827
 30
0.0
 10
529.8001563546227
 20
-103.1630995539509
 30
0.0
 10
524.815685585492
 20
-105.1632972174667
 30
0.0
 10
519.8053404650436
 20
-107.4202309598036
 30
0.0
 10
514.7779273187448
 20
-109.9298303373537
 30
0.0
 10
509.742262356846
 20
-112.6875776325519
 30
0.0
 10
504.7071479110583
 20
-115.6885270204153
 30
0.0
 10
499.6813594317149
 20
-118.9273183023496
 30
0.0
 10
494.6736245118732
 20
-122.3981973619338
 30
0.0
 10
489.6926244681818
 20
-126.0950207672731
 30
0.0
 10
484.7469858420846
 20
-130.0112646792417
 30
0.0
 10
479.8452685580596
 20
-134.1400355900613
 30
0.0
 10
474.9959535960502
 20
-138.47408140865
 30
0.0
 10
470.207430255981
 20
-143.0058030213902
 30
0.0
 10
465.4879831082024
 20
-147.727266416452
 30
0.0
 10
460.8457787292718
 20
-152.6302154225056
 30
0.0
 10
456.2888523199281
 20
-157.7060850852237
 30
0.0
 10
451.8250942956204
 20
-162.9460156842612
 30
0.0
 10
447.4622369316255
 20
-168.3408673784874
 30
0.0
 10
443.2078411360634
 20
-173.8812354566826
 30
0.0
 10
439.0692834158043
 20
-179.5574661636036
 30
0.0
 10
435.0537430927239
 20
-185.3596730663425
 30
0.0
 10
431.1681898212022
 20
-191.2777539225191
 30
0.0
 10
427.4193714520871
 20
-197.3014080096478
 30
0.0
 10
423.8138022837963
 20
-203.4201538730145
 30
0.0
 10
420.3577531792666
 20
-209.6233448599863
 30
0.0
 10
417.0572397700968
 20
-215.9001884884582
 30
0.0
 10
413.9180110521146
 20
-222.239766724049
 30
0.0
 10
410.9455383393288
 20
-228.6310577511656
 30
0.0
 10
408.1450067476302
 20
-235.0629541766502
 30
0.0
 10
405.5213072438353
 20
-241.5242808097311
 30
0.0
 10
403.0790284711906
 20
-248.0038140676237
 30
0.0
 10
400.8224491777075
 20
-254.4903014149512
 30
0.0
 10
398.75553126284
 20
-260.9724807770941
 30
0.0
 10
396.8819134535344
 20
-267.4390998636223
 30
0.0
 10
395.2049056150595
 20
-273.8789353329368
 30
0.0
 10
393.7274836945241
 20
-280.2808117236628
 30
0.0
 10
392.4522852849562
 20
-286.633620072434
 30
0.0
 10
391.3816057845245
 20
-292.9263361318597
 30
0.0
 10
390.5173951078763
 20
-299.1480380977306
 30
0.0
 10
389.8612548841941
 20
-305.2879237515501
 30
0.0
 10
389.4144360467001
 20
-311.3353269277345
 30
0.0
 10
389.1778366873059
 20
-317.2797332186707
 30
0.0
 10
389.151999992511
 20
-323.110794871982
 30
0.0
 10
389.3371120900309
 20
-328.8183447978442
 30
0.0
 10
389.7329988096952
 20
-334.3924020965687
 30
0.0
 10
390.3391205847666
 20
-339.8231797377492
 30
0.0
 10
391.1545650427728
 20
-345.1011082978274
 30
0.0
 10
392.1780478182046
 20
-350.2168488498982
 30
0.0
 10
393.4078863283177
 20
-355.1613370005259
 30
0.0
 10
394.8420694929083
 20
-359.9256919963374
 30
0.0
 10
396.47795425659
 20
-364.5016031511835
 30
0.0
 10
398.3133564203205
 20
-368.8799821575889
 30
0.0
 10
400.342445266969
 20
-373.0561041772339
 30
0.0
 10
402.5710323781046
 20
-377.0105711766277
 30
0.0
 10
404.672748353519
 20
-380.3277750224754
 30
0.0
 10
406.1074208661827
 20
-382.2290428840689
 30
0.0
 10
406.6668188287373
 20
-382.9703726012398
 30
0.0
  0
LINE
  5
130
330
1F
100
AcDbEntity
  8
0
  6
Continuous
 62
     7
370
    25
100
AcDbLine
 10
612.3439311205
 20
-114.8933571993
 30
0.0
 11
594.6662615908
 21
-104.6882558015
 31
0.0
  0
LINE
  5
131
330
1F
100
AcDbEntity
  8
0
  6
Continuous
 62
     7
370
    25
100
AcDbLine
 10
424.6800770427
 20
-399.1448690109
 30
0.0
 11
442.3577465723
 21
-409.3499704087
 31
0.0
  0
SPLINE
  5
132
330
1F
100
AcDbEntity
  8
0
  6
Continuous
 62
     7
370
    25
100
AcDbSpline
210
0.0
220
0.0
230
1.0
 70
     8
 71
     3
 72
    58
 73
    54
 74
     0
 42
0.00000001
 43
0.00000001
 40
0.0
 40
0.0
 40
0.0
 40
0.0
 40
0.0151222661761899
 40
0.034847720774948
 40
0.054586571124692
 40
0.0743380285681053
 40
0.0941008237263627
 40
0.1138734055289237
 40
0.1336541135110705
 40
0.15344131091432
 40
0.1732334762125366
 40
0.1930292573434944
 40
0.212827496217702
 40
0.2326272318237477
 40
0.2524276894517231
 40
0.2722281543351935
 40
0.2920281473280091
 40
0.3118273663235048
 40
0.331625603975954
 40
0.3514227293630136
 40
0.3712186722819433
 40
0.3910134101243415
 40
0.4108069571181782
 40
0.4305993556516762
 40
0.4503906693739717
 40
0.4701809777791799
 40
0.4899703720081455
 40
0.5097589516363372
 40
0.5295468222511541
 40
0.5493340936543724
 40
0.5691208785540689
 40
0.5889072916346019
 40
0.6086934489129525
 40
0.6284794673054859
 40
0.6482654643409727
 40
0.6680515390325182
 40
0.6878377892255526
 40
0.7076243332985289
 40
0.7274112895890182
 40
0.7471987761028426
 40
0.7669869100787815
 40
0.7867758073408587
 40
0.8065655813609408
 40
0.8263563419382853
 40
0.8461481933822399
 40
0.8659412320594164
 40
0.8857355431370009
 40
0.9055311963202226
 40
0.925328240345434
 40
0.9451266959539946
 40
0.9649265470417077
 40
0.9847277296631601
 40
1.0
 40
1.0
 40
1.0
 40
1.0
 10
465.3480664227082
 20
-416.8649794022092
 30
0.0
 10
466.4549268947903
 20
-416.9939014414483
 30
0.0
 10
469.0055740146431
 20
-417.2909891380144
 30
0.0
 10
473.1210605597483
 20
-417.4359621698833
 30
0.0
 10
477.6651248697885
 20
-417.3540622421651
 30
0.0
 10
482.2998142042445
 20
-416.9917363187196
 30
0.0
 10
487.0126071151436
 20
-416.3605775572782
 30
0.0
 10
491.7962682679719
 20
-415.4586424644876
 30
0.0
 10
496.6419547134084
 20
-414.2882873791536
 30
0.0
 10
501.5411111973548
 20
-412.8513766830163
 30
0.0
 10
506.4850023253163
 20
-411.1505520480073
 30
0.0
 10
511.4648713415937
 20
-409.1888724331538
 30
0.0
 10
516.4719243174106
 20
-406.9698895650408
 30
0.0
 10
521.4973558036905
 20
-404.4976070740342
 30
0.0
 10
526.5323504018709
 20
-401.7764770713821
 30
0.0
 10
531.5681026621777
 20
-398.8113826405172
 30
0.0
 10
536.5958324895091
 20
-395.607623127575
 30
0.0
 10
541.6068043651046
 20
-392.1708949604673
 30
0.0
 10
546.5923298024941
 20
-388.5072840679942
 30
0.0
 10
551.5437733734208
 20
-384.6232583650325
 30
0.0
 10
556.4525644723551
 20
-380.5256570511555
 30
0.0
 10
561.3102095762537
 20
-376.2216795859287
 30
0.0
 10
566.1083049249916
 20
-371.7188742055267
 30
0.0
 10
570.8385495304766
 20
-367.0251258862324
 30
0.0
 10
575.4927584151786
 20
-362.1486436992083
 30
0.0
 10
580.0628759825372
 20
-357.0979475294844
 30
0.0
 10
584.5409894277558
 20
-351.8818541538026
 30
0.0
 10
588.9193421056584
 20
-346.5094626876298
 30
0.0
 10
593.1903467810121
 20
-340.9901394227838
 30
0.0
 10
597.3465986951293
 20
-335.3335020848523
 30
0.0
 10
601.3808883902313
 20
-329.5494035448526
 30
0.0
 10
605.2862142397613
 20
-323.6479150231695
 30
0.0
 10
609.0557946386366
 20
-317.6393088261609
 30
0.0
 10
612.6830798121648
 20
-311.5340406577821
 30
0.0
 10
616.1617620974336
 20
-305.3427335235964
 30
0.0
 10
619.4857870724551
 20
-299.076159607904
 30
0.0
 10
622.6493654297352
 20
-292.7452194684332
 30
0.0
 10
625.6469838445429
 20
-286.3609209316401
 30
0.0
 10
628.4734141707728
 20
-279.9343596504008
 30
0.0
 10
631.1237211477313
 20
-273.476701954305
 30
0.0
 10
633.5932706488817
 20
-266.999165462023
 30
0.0
 10
635.8777373959983
 20
-260.5129996134366
 30
0.0
 10
637.9731118123356
 20
-254.0294663594851
 30
0.0
 10
639.8757071609087
 20
-247.5598204068443
 30
0.0
 10
641.5821626401859
 20
-241.1152915712977
 30
0.0
 10
643.0894585667908
 20
-234.7070600356766
 30
0.0
 10
644.3948834569946
 20
-228.3462592197905
 30
0.0
 10
645.4961777159473
 20
-222.0438771022559
 30
0.0
 10
646.3910153523179
 20
-215.8110384833876
 30
0.0
 10
647.0789538857725
 20
-209.6578677594668
 30
0.0
 10
647.5541695959143
 20
-203.5976526511108
 30
0.0
 10
647.811352144062
 20
-198.0862267598124
 30
0.0
 10
647.8395893498316
 20
-194.6370685800143
 30
0.0
 10
647.8518848669166
 20
-193.135178354976
 30
0.0
  0
SPLINE
  5
133
330
1F
100
AcDbEntity
  8
0
  6
Continuous
 62
     7
370
    25
100
AcDbSpline
210
0.0
220
0.0
230
1.0
 70
     8
 71
     3
 72
    21
 73
    17
 74
     0
 42
0.00000001
 43
0.00000001
 40
0.0
 40
0.0
 40
0.0
 40
0.0
 40
0.0410062105683129
 40
0.118896943469268
 40
0.1967949315769574
 40
0.274693013875646
 40
0.3525883320597652
 40
0.4304775932720528
 40
0.5083567282200868
 40
0.5862208540940754
 40
0.6640642994145829
 40
0.7418807224753993
 40
0.819663357447956
 40
0.8974054173804256
 40
0.9751006671427029
 40
1.0
 40
1.0
 40
1.0
 40
1.0
 10
647.8518848669166
 20
-193.135178354976
 30
0.0
 10
647.8460053642764
 20
-192.1181073998578
 30
0.0
 10
647.8289578272485
 20
-189.1691241561251
 30
0.0
 10
647.639542785729
 20
-184.382714916957
 30
0.0
 10
647.2145992347672
 20
-178.8282308614877
 30
0.0
 10
646.5766613655136
 20
-173.4199287438708
 30
0.0
 10
645.7303360103077
 20
-168.1654560661137
 30
0.0
 10
644.6759887833229
 20
-163.0746544576219
 30
0.0
 10
643.4156301097549
 20
-158.1563944672973
 30
0.0
 10
641.9512238867386
 20
-153.4196001999484
 30
0.0
 10
640.2856274258015
 20
-148.8723598009863
 30
0.0
 10
638.4205762770995
 20
-144.5243460197876
 30
0.0
 10
636.3638474282917
 20
-140.3778846681062
 30
0.0
 10
634.1026676010698
 20
-136.4610664172746
 30
0.0
 10
632.2458986197266
 20
-133.5542875013975
 30
0.0
 10
631.083248595211
 20
-132.0316681763324
 30
0.0
 10
630.8010776538438
 20
-131.6621339921511
 30
0.0
  0
SPLINE
  5
134
330
1F
100
AcDbEntity
  8
0
  6
Continuous
 62
     7
370
    25
100
AcDbSpline
210
0.0
220
0.0
230
1.0
 70
     8
 71
     3
 72
    20
 73
    16
 74
     0
 42
0.00000001
 43
0.00000001
 40
0.0
 40
0.0
 40
0.0
 40
0.0
 40
0.0164950087589358
 40
0.1027646229227048
 40
0.1889285003408362
 40
0.2749895905854301
 40
0.3609579395548395
 40
0.4468476390872725
 40
0.5326742333859559
 40
0.6184528589978341
 40
0.7041971176694084
 40
0.7899185400479635
 40
0.8756264599509859
 40
0.9613281374543444
 40
1.0
 40
1.0
 40
1.0
 40
1.0
 10
579.8132395640886
 20
-157.8387530543854
 30
0.0
 10
579.9631477593913
 20
-158.0050282107846
 30
0.0
 10
580.897082344601
 20
-159.0409296764032
 30
0.0
 10
582.4465080107312
 20
-161.1757684591738
 30
0.0
 10
584.4445736494552
 20
-164.2464193802412
 30
0.0
 10
586.2415689222912
 20
-167.5554617241751
 30
0.0
 10
587.8525847503593
 20
-171.067934379521
 30
0.0
 10
589.2687385687707
 20
-174.7823969684636
 30
0.0
 10
590.4880582026689
 20
-178.6879514218471
 30
0.0
 10
591.5072973809799
 20
-182.7756478575842
 30
0.0
 10
592.3237867232567
 20
-187.0356000518363
 30
0.0
 10
592.9362626694397
 20
-191.4570130791064
 30
0.0
 10
593.3398301703005
 20
-196.0309148687208
 30
0.0
 10
593.5078214237852
 20
-199.8780320725078
 30
0.0
 10
593.5216753984618
 20
-202.2077035074496
 30
0.0
 10
593.525983059112
 20
-202.9320756968486
 30
0.0
  0
SPLINE
  5
135
330
1F
100
AcDbEntity
  8
0
  6
Continuous
 62
     7
370
    25
100
AcDbSpline
210
0.0
220
0.0
230
1.0
 70
     8
 71
     3
 72
    51
 73
    47
 74
     0
 42
0.00000001
 43
0.00000001
 40
0.0
 40
0.0
 40
0.0
 40
0.0
 40
0.0122068805582624
 40
0.0354252894322151
 40
0.0586471753674239
 40
0.0818709486751686
 40
0.1050969320713023
 40
0.1283252785398757
 40
0.151556013963514
 40
0.1747890709033985
 40
0.1980243145420925
 40
0.2212615622555268
 40
0.2445005981288109
 40
0.2677411835324993
 40
0.2909830646759758
 40
0.3142259778745273
 40
0.3374696531147205
 40
0.3607138163806882
 40
0.3839581911100246
 40
0.4072024765199034
 40
0.4304463230381559
 40
0.4536894509443742
 40
0.4769315808125927
 40
0.5001724346570863
 40
0.5234117378231743
 40
0.5466492219473844
 40
0.5698846294100484
 40
0.5931177198149455
 40
0.616348279172415
 40
0.6395761326348078
 40
0.6628011618318322
 40
0.6860233280640907
 40
0.7092427028038832
 40
0.7324595070607703
 40
0.7556741610848551
 40
0.7788873454189937
 40
0.8021000121968945
 40
0.825313129139119
 40
0.8485284493276968
 40
0.8717482762268771
 40
0.8949755211197271
 40
0.9182137108042185
 40
0.9414669066039668
 40
0.9647394872216767
 40
0.9880357493993719
 40
1.0
 40
1.0
 40
1.0
 40
1.0
 10
593.525983059112
 20
-202.9320756968486
 30
0.0
 10
593.5201924895334
 20
-203.7823521568893
 30
0.0
 10
593.503387819223
 20
-206.2499186699371
 30
0.0
 10
593.316498225578
 20
-210.4251100548068
 30
0.0
 10
592.8970542924853
 20
-215.4820184642828
 30
0.0
 10
592.2676407774079
 20
-220.6323013923989
 30
0.0
 10
591.4332617037401
 20
-225.8607624005272
 30
0.0
 10
590.3948971547608
 20
-231.1549081538475
 30
0.0
 10
589.1552699109319
 20
-236.5013242952022
 30
0.0
 10
587.7172966635906
 20
-241.886653790666
 30
0.0
 10
586.084493579695
 20
-247.2973826385401
 30
0.0
 10
584.2608559203791
 20
-252.7199443637799
 30
0.0
 10
582.2508767283747
 20
-258.1407382846242
 30
0.0
 10
580.0595266041911
 20
-263.5461701497572
 30
0.0
 10
577.6922424405694
 20
-268.9226860996815
 30
0.0
 10
575.1549124134722
 20
-274.256807780431
 30
0.0
 10
572.4538607276779
 20
-279.5351665394543
 30
0.0
 10
569.5958312518347
 20
-284.7445372693585
 30
0.0
 10
566.5879713054366
 20
-289.8718700856156
 30
0.0
 10
563.4378160302374
 20
-294.9043199074195
 30
0.0
 10
560.1532669465716
 20
-299.8292844219646
 30
0.0
 10
556.7425710057014
 20
-304.6344376237908
 30
0.0
 10
553.2142973351982
 20
-309.3077640459089
 30
0.0
 10
549.57731925314
 20
-313.8375843571322
 30
0.0
 10
545.8407923606194
 20
-318.212585420796
 30
0.0
 10
542.0141318756963
 20
-322.4218497211228
 30
0.0
 10
538.1069891848969
 20
-326.4548841276286
 30
0.0
 10
534.1292275645012
 20
-330.3016479667543
 30
0.0
 10
530.090896994994
 20
-333.9525803608034
 30
0.0
 10
526.0022079562137
 20
-337.3986267757043
 30
0.0
 10
521.8735040471288
 20
-340.631264688855
 30
0.0
 10
517.7152332302807
 20
-343.642528227233
 30
0.0
 10
513.5379174416788
 20
-346.4250315718763
 30
0.0
 10
509.3521203189921
 20
-348.9719906940882
 30
0.0
 10
505.1684126187871
 20
-351.2772432189049
 30
0.0
 10
500.9973392619838
 20
-353.3352626768868
 30
0.0
 10
496.8494022954449
 20
-355.1411650289292
 30
0.0
 10
492.7350053967912
 20
-356.6907217820097
 30
0.0
 10
488.6643901388576
 20
-357.9804033676187
 30
0.0
 10
484.6476321926551
 20
-359.0072348816498
 30
0.0
 10
480.6943838101512
 20
-359.7693057378801
 30
0.0
 10
476.8147088750506
 20
-360.2637492827325
 30
0.0
 10
473.0158019325077
 20
-360.4941510873158
 30
0.0
 10
469.3141462596874
 20
-360.4426907364468
 30
0.0
 10
466.2790785756679
 20
-360.217707923751
 30
0.0
 10
464.5254074292198
 20
-359.907520408447
 30
0.0
 10
463.9303689736221
 20
-359.8022706297606
 30
0.0
  0
SPLINE
  5
136
330
1F
100
AcDbEntity
  8
0
  6
Continuous
 62
     7
370
    25
100
AcDbSpline
210
0.0
220
0.0
230
1.0
 70
     8
 71
     3
 72
    13
 73
     9
 74
     0
 42
0.00000001
 43
0.00000001
 40
0.0
 40
0.0
 40
0.0
 40
0.0
 40
0.0213876440744518
 40
0.2552341454925499
 40
0.4603303484884798
 40
0.6784187615831706
 40
0.8906960965912449
 40
1.0
 40
1.0
 40
1.0
 40
1.0
 10
589.0146958327921
 20
-285.0476903326787
 30
0.0
 10
589.0407598666972
 20
-285.0596667737868
 30
0.0
 10
589.3518007367752
 20
-285.2025902627714
 30
0.0
 10
589.78875839875
 20
-285.6786538386545
 30
0.0
 10
590.3398470403534
 20
-286.5168041952233
 30
0.0
 10
590.712074570159
 20
-287.5825137875384
 30
0.0
 10
590.8876412583306
 20
-288.6537695261627
 30
0.0
 10
590.9031719008708
 20
-289.3651336649995
 30
0.0
 10
590.9084506909535
 20
-289.6069228859835
 30
0.0
  0
SPLINE
  5
137
330
1F
100
AcDbEntity
  8
0
  6
Continuous
 62
     7
370
    25
100
AcDbSpline
210
0.0
220
0.0
230
1.0
 70
     8
 71
     3
 72
    22
 73
    18
 74
     0
 42
0.00000001
 43
0.00000001
 40
0.0
 40
0.0
 40
0.0
 40
0.0
 40
0.0357957841880399
 40
0.1045261594770878
 40
0.1734959821004448
 40
0.2426747877289157
 40
0.3120162477226613
 40
0.3814428720991117
 40
0.4508656940685352
 40
0.520166373864868
 40
0.5892547153370149
 40
0.6580502909886825
 40
0.7265115741576016
 40
0.7947102482258862
 40
0.8628985641336336
 40
0.9317178103463523
 40
0.9999999999999999
 40
0.9999999999999999
 40
0.9999999999999999
 40
0.9999999999999999
 10
590.9084506909535
 20
-289.6069228859835
 30
0.0
 10
590.9031472237624
 20
-289.856481397116
 30
0.0
 10
590.8876607336639
 20
-290.58520946734
 30
0.0
 10
590.712325875677
 20
-291.8871721690587
 30
0.0
 10
590.316981891429
 20
-293.5026680097204
 30
0.0
 10
589.7298738553786
 20
-295.1502349454217
 30
0.0
 10
588.9683843766652
 20
-296.7808493322747
 30
0.0
 10
588.0516297530078
 20
-298.3493370191389
 30
0.0
 10
587.0054596116295
 20
-299.8112281468545
 30
0.0
 10
585.8602145640314
 20
-301.1256992014249
 30
0.0
 10
584.6503302778967
 20
-302.2567260275105
 30
0.0
 10
583.4130566206484
 20
-303.1749534669224
 30
0.0
 10
582.1877713791085
 20
-303.8585724453631
 30
0.0
 10
581.0129107901034
 20
-304.2972803412486
 30
0.0
 10
579.9279583136242
 20
-304.4852379644387
 30
0.0
 10
578.957929703113
 20
-304.4533085172316
 30
0.0
 10
578.4271200674827
 20
-304.2515371342864
 30
0.0
 10
578.1627548988682
 20
-304.1510466343154
 30
0.0
  0
SPLINE
  5
138
330
1F
100
AcDbEntity
  8
0
  6
Continuous
 62
     7
370
    25
100
AcDbSpline
210
0.0
220
0.0
230
1.0
 70
     8
 71
     3
 72
    62
 73
    58
 74
     0
 42
0.00000001
 43
0.00000001
 40
0.0
 40
0.0
 40
0.0
 40
0.0
 40
0.0025994662432347
 40
0.0212171649288921
 40
0.0398120492490397
 40
0.058384734074919
 40
0.0769373734480367
 40
0.0954730018129893
 40
0.1139949726784337
 40
0.1325065552912461
 40
0.1510106896988568
 40
0.1695098697554784
 40
0.1880061151748337
 40
0.2065009976388063
 40
0.2249955811832395
 40
0.2434905755915943
 40
0.2619866434257125
 40
0.2804842180781581
 40
0.2989835551670209
 40
0.3174847751861691
 40
0.3359878977468497
 40
0.3544928684038809
 40
0.3729995792534582
 40
0.3915078844696184
 40
0.4100176118247549
 40
0.4285285710816917
 40
0.4470405599856378
 40
0.4655533684411808
 40
0.484066781338672
 40
0.5025805803974902
 40
0.521094545319087
 40
0.539608435661246
 40
0.5581219738441466
 40
0.5766349370716728
 40
0.5951471027903309
 40
0.6136582496074399
 40
0.6321681588053737
 40
0.6506766167110366
 40
0.6691834182584112
 40
0.6876883721712186
 40
0.706191308305874
 40
0.724692087832604
 40
0.743190617091007
 40
0.7616868661242229
 40
0.780180893047371
 40
0.7986728754911399
 40
0.8171631502914969
 40
0.8356522622241344
 40
0.8541409689942956
 40
0.8726300482457429
 40
0.8911209010382942
 40
0.9096153674731584
 40
0.9281157721245706
 40
0.9466249295442642
 40
0.9651460787204093
 40
0.9836827086330755
 40
1.0
 40
1.0
 40
1.0
 40
1.0
 10
457.1165601015239
 20
-356.0955227967149
 30
0.0
 10
457.0071309455197
 20
-355.9740474291783
 30
0.0
 10
456.1139566421366
 20
-354.9825504576252
 30
0.0
 10
454.6025098236104
 20
-352.8957769363083
 30
0.0
 10
452.6011997907641
 20
-349.8292376173305
 30
0.0
 10
450.8023195530869
 20
-346.5222590005606
 30
0.0
 10
449.1889947584951
 20
-343.012275864297
 30
0.0
 10
447.7705954151889
 20
-339.3000589552572
 30
0.0
 10
446.5489535700484
 20
-335.3966882149007
 30
0.0
 10
445.5274169000739
 20
-331.3110256416098
 30
0.0
 10
444.7084171007371
 20
-327.0530963719816
 30
0.0
 10
444.0940957158747
 20
-322.6331958872756
 30
0.0
 10
443.6861050400392
 20
-318.0621228665536
 30
0.0
 10
443.4856303995437
 20
-313.3511045814907
 30
0.0
 10
443.4933546584061
 20
-308.5117892725902
 30
0.0
 10
443.7094438301766
 20
-303.5561890450116
 30
0.0
 10
444.1335386518451
 20
-298.4966332713705
 30
0.0
 10
444.7647527679326
 20
-293.3457267727989
 30
0.0
 10
445.601669757475
 20
-288.1163317561308
 30
0.0
 10
446.6423437918271
 20
-282.8215285285178
 30
0.0
 10
447.8843031815153
 20
-277.4745766144324
 30
0.0
 10
449.324556323372
 20
-272.0888764585559
 30
0.0
 10
450.9595996278923
 20
-266.6779317949436
 30
0.0
 10
452.7854271125169
 20
-261.25531267461
 30
0.0
 10
454.7975414245171
 20
-255.8346191126433
 30
0.0
 10
456.9909661207803
 20
-250.429445306142
 30
0.0
 10
459.3602590784731
 20
-245.0533443793648
 30
0.0
 10
461.8995269441848
 20
-239.7197936238415
 30
0.0
 10
464.6024405524042
 20
-234.4421602146458
 30
0.0
 10
467.4622512597862
 20
-229.2336673971411
 30
0.0
 10
470.4718071320414
 20
-224.1073628870373
 30
0.0
 10
473.6235686634547
 20
-219.0760891325081
 30
0.0
 10
476.9096301951751
 20
-214.1524454382496
 30
0.0
 10
480.3217409272968
 20
-209.3487543626833
 30
0.0
 10
483.851328077908
 20
-204.6770276452248
 30
0.0
 10
487.4895149246179
 20
-200.1489405369949
 30
0.0
 10
491.2271427207875
 20
-195.775801749276
 30
0.0
 10
495.0547933704783
 20
-191.5685240346677
 30
0.0
 10
498.9628128862637
 20
-187.5375954305497
 30
0.0
 10
502.9413356779898
 20
-183.693051195648
 30
0.0
 10
506.9803097493485
 20
-180.044446480107
 30
0.0
 10
511.0695229157175
 20
-176.6008297865781
 30
0.0
 10
515.1986301978898
 20
-173.3707173162366
 30
0.0
 10
519.3571825995914
 20
-170.3620683328292
 30
0.0
 10
523.5346575009557
 20
-167.582261815078
 30
0.0
 10
527.7204910182132
 20
-165.0380745903084
 30
0.0
 10
531.9041123749108
 20
-162.7356620646144
 30
0.0
 10
536.074977467579
 20
-160.68054205091
 30
0.0
 10
540.2225831254706
 20
-158.8775958265005
 30
0.0
 10
544.3365348213589
 20
-157.3310258747709
 30
0.0
 10
548.4065644352569
 20
-156.0444221274331
 30
0.0
 10
552.4227063100255
 20
-155.0204974046544
 30
0.0
 10
556.374909932554
 20
-154.2621051876529
 30
0.0
 10
560.2546133258872
 20
-153.7685566075525
 30
0.0
 10
564.0490279568859
 20
-153.5495148521421
 30
0.0
 10
567.6131310723988
 20
-153.5723117027384
 30
0.0
 10
569.8563045700669
 20
-153.8008640609374
 30
0.0
 10
570.9064737964903
 20
-153.907863654797
 30
0.0
  0
SPLINE
  5
139
330
1F
100
AcDbEntity
  8
0
  6
Continuous
 62
     7
370
    25
100
AcDbSpline
210
0.0
220
0.0
230
1.0
 70
     8
 71
     3
 72
    13
 73
     9
 74
     0
 42
0.00000001
 43
0.00000001
 40
0.0
 40
0.0
 40
0.0
 40
0.0
 40
0.0213876440744219
 40
0.2552341454924999
 40
0.4603303484884184
 40
0.6784187615830852
 40
0.8906960965911624
 40
1.0
 40
1.0
 40
1.0
 40
1.0
 10
619.5629460578144
 20
-182.2487829350613
 30
0.0
 10
619.5890100917195
 20
-182.2607593761694
 30
0.0
 10
619.9000509617975
 20
-182.4036828651539
 30
0.0
 10
620.3370086237722
 20
-182.8797464410369
 30
0.0
 10
620.8880972653758
 20
-183.7178967976056
 30
0.0
 10
621.2603247951812
 20
-184.7836063899205
 30
0.0
 10
621.4358914833529
 20
-185.8548621285449
 30
0.0
 10
621.4514221258934
 20
-186.5662262673819
 30
0.0
 10
621.456700915976
 20
-186.8080154883661
 30
0.0
  0
SPLINE
  5
13A
330
1F
100
AcDbEntity
  8
0
  6
Continuous
 62
     7
370
    25
100
AcDbSpline
210
0.0
220
0.0
230
1.0
 70
     8
 71
     3
 72
    22
 73
    18
 74
     0
 42
0.00000001
 43
0.00000001
 40
0.0
 40
0.0
 40
0.0
 40
0.0
 40
0.03579578418804
 40
0.1045261594770761
 40
0.1734959821004379
 40
0.2426747877289139
 40
0.3120162477226537
 40
0.3814428720991062
 40
0.4508656940685316
 40
0.5201663738648621
 40
0.58925471533701
 40
0.6580502909886771
 40
0.7265115741575935
 40
0.7947102482258785
 40
0.862898564133623
 40
0.9317178103463448
 40
1.0
 40
1.0
 40
1.0
 40
1.0
 10
621.456700915976
 20
-186.8080154883661
 30
0.0
 10
621.4513974487849
 20
-187.0575739994986
 30
0.0
 10
621.4359109586865
 20
-187.7863020697225
 30
0.0
 10
621.2605761006995
 20
-189.0882647714411
 30
0.0
 10
620.8652321164516
 20
-190.7037606121028
 30
0.0
 10
620.2781240804012
 20
-192.3513275478041
 30
0.0
 10
619.5166346016878
 20
-193.9819419346571
 30
0.0
 10
618.5998799780303
 20
-195.5504296215213
 30
0.0
 10
617.5537098366519
 20
-197.012320749237
 30
0.0
 10
616.4084647890539
 20
-198.3267918038074
 30
0.0
 10
615.1985805029192
 20
-199.4578186298929
 30
0.0
 10
613.9613068456711
 20
-200.3760460693049
 30
0.0
 10
612.7360216041311
 20
-201.0596650477456
 30
0.0
 10
611.561161015126
 20
-201.4983729436311
 30
0.0
 10
610.4762085386468
 20
-201.6863305668212
 30
0.0
 10
609.5061799281356
 20
-201.6544011196142
 30
0.0
 10
608.9753702925052
 20
-201.452629736669
 30
0.0
 10
608.7110051238908
 20
-201.352139236698
 30
0.0
  0
SPLINE
  5
13B
330
1F
100
AcDbEntity
  8
0
  6
Continuous
 62
     7
370
    25
100
AcDbSpline
210
0.0
220
0.0
230
1.0
 70
     8
 71
     3
 72
    13
 73
     9
 74
     0
 42
0.00000001
 43
0.00000001
 40
0.0
 40
0.0
 40
0.0
 40
0.0
 40
0.0213876440744851
 40
0.2552341454925892
 40
0.4603303484885263
 40
0.67841876158322
 40
0.8906960965912947
 40
1.0
 40
1.0
 40
1.0
 40
1.0
 10
515.2646958327874
 20
-362.8986509351354
 30
0.0
 10
515.2907598666925
 20
-362.9106273762436
 30
0.0
 10
515.6018007367707
 20
-363.0535508652281
 30
0.0
 10
516.0387583987455
 20
-363.5296144411114
 30
0.0
 10
516.5898470403489
 20
-364.3677647976803
 30
0.0
 10
516.9620745701543
 20
-365.4334743899954
 30
0.0
 10
517.137641258326
 20
-366.5047301286197
 30
0.0
 10
517.1531719008661
 20
-367.2160942674564
 30
0.0
 10
517.1584506909488
 20
-367.4578834884402
 30
0.0
  0
SPLINE
  5
13C
330
1F
100
AcDbEntity
  8
0
  6
Continuous
 62
     7
370
    25
100
AcDbSpline
210
0.0
220
0.0
230
1.0
 70
     8
 71
     3
 72
    22
 73
    18
 74
     0
 42
0.00000001
 43
0.00000001
 40
0.0
 40
0.0
 40
0.0
 40
0.0
 40
0.0357957841880388
 40
0.1045261594770928
 40
0.1734959821004477
 40
0.2426747877289187
 40
0.3120162477226619
 40
0.3814428720991113
 40
0.4508656940685317
 40
0.5201663738648653
 40
0.5892547153370135
 40
0.6580502909886815
 40
0.7265115741575984
 40
0.7947102482258841
 40
0.8628985641336279
 40
0.9317178103463574
 40
1.0
 40
1.0
 40
1.0
 40
1.0
 10
517.1584506909488
 20
-367.4578834884402
 30
0.0
 10
517.1531472237577
 20
-367.7074419995727
 30
0.0
 10
517.1376607336595
 20
-368.4361700697967
 30
0.0
 10
516.9623258756724
 20
-369.7381327715154
 30
0.0
 10
516.5669818914243
 20
-371.3536286121773
 30
0.0
 10
515.979873855374
 20
-373.0011955478785
 30
0.0
 10
515.2183843766605
 20
-374.6318099347315
 30
0.0
 10
514.3016297530031
 20
-376.2002976215957
 30
0.0
 10
513.2554596116247
 20
-377.6621887493113
 30
0.0
 10
512.1102145640266
 20
-378.9766598038817
 30
0.0
 10
510.900330277892
 20
-380.1076866299672
 30
0.0
 10
509.6630566206437
 20
-381.0259140693792
 30
0.0
 10
508.4377713791037
 20
-381.7095330478198
 30
0.0
 10
507.2629107900987
 20
-382.1482409437053
 30
0.0
 10
506.1779583136195
 20
-382.3361985668954
 30
0.0
 10
505.2079297031082
 20
-382.3042691196883
 30
0.0
 10
504.6771200674779
 20
-382.102497736743
 30
0.0
 10
504.4127548988635
 20
-382.0020072367721
 30
0.0
  0
SPLINE
  5
13D
330
1F
100
AcDbEntity
  8
0
  6
Continuous
 62
     7
370
    25
100
AcDbSpline
210
0.0
220
0.0
230
1.0
 70
     8
 71
     3
 72
    13
 73
     9
 74
     0
 42
0.00000001
 43
0.00000001
 40
0.0
 40
0.0
 40
0.0
 40
0.0
 40
0.0213876440744973
 40
0.2552341454926043
 40
0.4603303484885342
 40
0.6784187615832141
 40
0.8906960965912893
 40
1.0
 40
1.0
 40
1.0
 40
1.0
 10
589.0146958328036
 20
-114.7201344986717
 30
0.0
 10
589.0407598667086
 20
-114.7321109397799
 30
0.0
 10
589.3518007367868
 20
-114.8750344287645
 30
0.0
 10
589.7887583987616
 20
-115.3510980046476
 30
0.0
 10
590.3398470403652
 20
-116.1892483612165
 30
0.0
 10
590.7120745701704
 20
-117.2549579535316
 30
0.0
 10
590.887641258342
 20
-118.3262136921559
 30
0.0
 10
590.9031719008824
 20
-119.0375778309925
 30
0.0
 10
590.9084506909649
 20
-119.2793670519764
 30
0.0
  0
SPLINE
  5
13E
330
1F
100
AcDbEntity
  8
0
  6
Continuous
 62
     7
370
    25
100
AcDbSpline
210
0.0
220
0.0
230
1.0
 70
     8
 71
     3
 72
    22
 73
    18
 74
     0
 42
0.00000001
 43
0.00000001
 40
0.0
 40
0.0
 40
0.0
 40
0.0
 40
0.0357957841880394
 40
0.1045261594770979
 40
0.1734959821004534
 40
0.242674787728926
 40
0.3120162477226607
 40
0.3814428720991155
 40
0.4508656940685337
 40
0.5201663738648661
 40
0.5892547153370151
 40
0.6580502909886848
 40
0.7265115741575999
 40
0.7947102482258808
 40
0.8628985641336266
 40
0.9317178103463438
 40
1.0
 40
1.0
 40
1.0
 40
1.0
 10
590.9084506909649
 20
-119.2793670519764
 30
0.0
 10
590.9031472237739
 20
-119.5289255631089
 30
0.0
 10
590.8876607336755
 20
-120.257653633333
 30
0.0
 10
590.7123258756884
 20
-121.5596163350519
 30
0.0
 10
590.3169818914405
 20
-123.1751121757136
 30
0.0
 10
589.72987385539
 20
-124.8226791114148
 30
0.0
 10
588.9683843766767
 20
-126.4532934982678
 30
0.0
 10
588.0516297530191
 20
-128.021781185132
 30
0.0
 10
587.0054596116408
 20
-129.4836723128475
 30
0.0
 10
585.8602145640427
 20
-130.798143367418
 30
0.0
 10
584.650330277908
 20
-131.9291701935035
 30
0.0
 10
583.4130566206597
 20
-132.8473976329154
 30
0.0
 10
582.1877713791198
 20
-133.5310166113561
 30
0.0
 10
581.0129107901148
 20
-133.9697245072415
 30
0.0
 10
579.9279583136356
 20
-134.1576821304316
 30
0.0
 10
578.9579297031245
 20
-134.1257526832245
 30
0.0
 10
578.4271200674941
 20
-133.9239813002793
 30
0.0
 10
578.1627548988796
 20
-133.8234908003083
 30
0.0
  0
SPLINE
  5
13F
330
1F
100
AcDbEntity
  8
0
  6
Continuous
 62
     7
370
    25
100
AcDbSpline
210
0.0
220
0.0
230
1.0
 70
     8
 71
     3
 72
    13
 73
     9
 74
     0
 42
0.00000001
 43
0.00000001
 40
0.0
 40
0.0
 40
0.0
 40
0.0
 40
0.0213876440744832
 40
0.2552341454925794
 40
0.4603303484885131
 40
0.678418761583208
 40
0.8906960965912886
 40
1.0
 40
1.0
 40
1.0
 40
1.0
 10
441.5146958327876
 20
-370.1976278652859
 30
0.0
 10
441.5407598666926
 20
-370.2096043063941
 30
0.0
 10
441.8518007367709
 20
-370.3525277953785
 30
0.0
 10
442.2887583987456
 20
-370.8285913712617
 30
0.0
 10
442.8398470403491
 20
-371.6667417278306
 30
0.0
 10
443.2120745701544
 20
-372.7324513201457
 30
0.0
 10
443.387641258326
 20
-373.8037070587701
 30
0.0
 10
443.4031719008663
 20
-374.5150711976067
 30
0.0
 10
443.4084506909489
 20
-374.7568604185906
 30
0.0
  0
SPLINE
  5
140
330
1F
100
AcDbEntity
  8
0
  6
Continuous
 62
     7
370
    25
100
AcDbSpline
210
0.0
220
0.0
230
1.0
 70
     8
 71
     3
 72
    22
 73
    18
 74
     0
 42
0.00000001
 43
0.00000001
 40
0.0
 40
0.0
 40
0.0
 40
0.0
 40
0.0357957841880396
 40
0.1045261594770983
 40
0.1734959821004542
 40
0.2426747877289271
 40
0.3120162477226621
 40
0.3814428720991172
 40
0.4508656940685357
 40
0.5201663738648684
 40
0.5892547153370178
 40
0.658050290988688
 40
0.7265115741576001
 40
0.7947102482258878
 40
0.8628985641336304
 40
0.9317178103463513
 40
1.0
 40
1.0
 40
1.0
 40
1.0
 10
443.4084506909489
 20
-374.7568604185906
 30
0.0
 10
443.4031472237579
 20
-375.0064189297232
 30
0.0
 10
443.3876607336595
 20
-375.7351469999472
 30
0.0
 10
443.2123258756725
 20
-377.037109701666
 30
0.0
 10
442.8169818914244
 20
-378.6526055423279
 30
0.0
 10
442.229873855374
 20
-380.300172478029
 30
0.0
 10
441.4683843766607
 20
-381.930786864882
 30
0.0
 10
440.5516297530032
 20
-383.4992745517462
 30
0.0
 10
439.5054596116248
 20
-384.9611656794618
 30
0.0
 10
438.3602145640268
 20
-386.2756367340322
 30
0.0
 10
437.150330277892
 20
-387.4066635601177
 30
0.0
 10
435.9130566206438
 20
-388.3248909995296
 30
0.0
 10
434.6877713791038
 20
-389.0085099779703
 30
0.0
 10
433.5129107900988
 20
-389.4472178738557
 30
0.0
 10
432.4279583136196
 20
-389.6351754970457
 30
0.0
 10
431.4579297031084
 20
-389.6032460498387
 30
0.0
 10
430.9271200674781
 20
-389.4014746668935
 30
0.0
 10
430.6627548988637
 20
-389.3009841669225
 30
0.0
  0
SPLINE
  5
141
330
1F
100
AcDbEntity
  8
0
  6
Continuous
 62
     7
370
    25
100
AcDbSpline
210
0.0
220
0.0
230
1.0
 70
     8
 71
     3
 72
    13
 73
     9
 74
     0
 42
0.00000001
 43
0.00000001
 40
0.0
 40
0.0
 40
0.0
 40
0.0
 40
0.0213876440743969
 40
0.2552341454924597
 40
0.4603303484883889
 40
0.6784187615830897
 40
0.8906960965911632
 40
1.0
 40
1.0
 40
1.0
 40
1.0
 10
515.2646958328037
 20
-122.019111428822
 30
0.0
 10
515.2907598667085
 20
-122.0310878699301
 30
0.0
 10
515.6018007367867
 20
-122.1740113589146
 30
0.0
 10
516.0387583987614
 20
-122.6500749347975
 30
0.0
 10
516.5898470403649
 20
-123.4882252913662
 30
0.0
 10
516.9620745701704
 20
-124.5539348836813
 30
0.0
 10
517.1376412583421
 20
-125.6251906223057
 30
0.0
 10
517.1531719008825
 20
-126.3365547611427
 30
0.0
 10
517.158450690965
 20
-126.5783439821268
 30
0.0
  0
SPLINE
  5
142
330
1F
100
AcDbEntity
  8
0
  6
Continuous
 62
     7
370
    25
100
AcDbSpline
210
0.0
220
0.0
230
1.0
 70
     8
 71
     3
 72
    22
 73
    18
 74
     0
 42
0.00000001
 43
0.00000001
 40
0.0
 40
0.0
 40
0.0
 40
0.0
 40
0.0357957841880397
 40
0.1045261594770953
 40
0.1734959821004529
 40
0.2426747877289246
 40
0.3120162477226651
 40
0.3814428720991194
 40
0.45086569406854
 40
0.5201663738648724
 40
0.5892547153370262
 40
0.6580502909886867
 40
0.726511574157609
 40
0.7947102482258873
 40
0.8628985641336306
 40
0.9317178103463534
 40
0.9999999999999999
 40
0.9999999999999999
 40
0.9999999999999999
 40
0.9999999999999999
 10
517.158450690965
 20
-126.5783439821268
 30
0.0
 10
517.153147223774
 20
-126.8279024932594
 30
0.0
 10
517.1376607336756
 20
-127.5566305634834
 30
0.0
 10
516.9623258756886
 20
-128.8585932652022
 30
0.0
 10
516.5669818914406
 20
-130.474089105864
 30
0.0
 10
515.9798738553902
 20
-132.1216560415651
 30
0.0
 10
515.2183843766768
 20
-133.7522704284181
 30
0.0
 10
514.3016297530194
 20
-135.3207581152823
 30
0.0
 10
513.255459611641
 20
-136.7826492429979
 30
0.0
 10
512.110214564043
 20
-138.0971202975683
 30
0.0
 10
510.9003302779083
 20
-139.2281471236538
 30
0.0
 10
509.66305662066
 20
-140.1463745630658
 30
0.0
 10
508.4377713791201
 20
-140.8299935415065
 30
0.0
 10
507.2629107901151
 20
-141.2687014373918
 30
0.0
 10
506.177958313636
 20
-141.456659060582
 30
0.0
 10
505.2079297031248
 20
-141.424729613375
 30
0.0
 10
504.6771200674945
 20
-141.2229582304298
 30
0.0
 10
504.4127548988801
 20
-141.1224677304588
 30
0.0
  0
SPLINE
  5
143
330
1F
100
AcDbEntity
  8
0
  6
Continuous
 62
     7
370
    25
100
AcDbSpline
210
0.0
220
0.0
230
1.0
 70
     8
 71
     3
 72
    13
 73
     9
 74
     0
 42
0.00000001
 43
0.00000001
 40
0.0
 40
0.0
 40
0.0
 40
0.0
 40
0.0213876440744196
 40
0.2552341454925037
 40
0.4603303484884106
 40
0.6784187615830873
 40
0.8906960965911539
 40
1.0
 40
1.0
 40
1.0
 40
1.0
 10
410.9664456077766
 20
-302.6689794288961
 30
0.0
 10
410.9925096416815
 20
-302.6809558700043
 30
0.0
 10
411.3035505117597
 20
-302.8238793589887
 30
0.0
 10
411.7405081737343
 20
-303.2999429348718
 30
0.0
 10
412.2915968153378
 20
-304.1380932914405
 30
0.0
 10
412.6638243451434
 20
-305.2038028837554
 30
0.0
 10
412.8393910333151
 20
-306.2750586223798
 30
0.0
 10
412.8549216758554
 20
-306.9864227612168
 30
0.0
 10
412.860200465938
 20
-307.2282119822009
 30
0.0
  0
SPLINE
  5
144
330
1F
100
AcDbEntity
  8
0
  6
Continuous
 62
     7
370
    25
100
AcDbSpline
210
0.0
220
0.0
230
1.0
 70
     8
 71
     3
 72
    22
 73
    18
 74
     0
 42
0.00000001
 43
0.00000001
 40
0.0
 40
0.0
 40
0.0
 40
0.0
 40
0.0357957841880395
 40
0.1045261594770749
 40
0.1734959821004358
 40
0.2426747877289111
 40
0.3120162477226492
 40
0.3814428720991022
 40
0.4508656940685279
 40
0.5201663738648585
 40
0.58925471533701
 40
0.6580502909886771
 40
0.7265115741575928
 40
0.7947102482258751
 40
0.862898564133619
 40
0.9317178103463417
 40
1.0
 40
1.0
 40
1.0
 40
1.0
 10
412.860200465938
 20
-307.2282119822009
 30
0.0
 10
412.8548969987469
 20
-307.4777704933335
 30
0.0
 10
412.8394105086485
 20
-308.2064985635574
 30
0.0
 10
412.6640756506616
 20
-309.508461265276
 30
0.0
 10
412.2687316664137
 20
-311.1239571059378
 30
0.0
 10
411.6816236303633
 20
-312.7715240416389
 30
0.0
 10
410.9201341516498
 20
-314.402138428492
 30
0.0
 10
410.0033795279924
 20
-315.9706261153563
 30
0.0
 10
408.9572093866141
 20
-317.4325172430719
 30
0.0
 10
407.8119643390159
 20
-318.7469882976424
 30
0.0
 10
406.6020800528813
 20
-319.8780151237279
 30
0.0
 10
405.364806395633
 20
-320.7962425631399
 30
0.0
 10
404.139521154093
 20
-321.4798615415806
 30
0.0
 10
402.9646605650881
 20
-321.9185694374659
 30
0.0
 10
401.8797080886088
 20
-322.1065270606561
 30
0.0
 10
400.9096794780976
 20
-322.0745976134491
 30
0.0
 10
400.3788698424672
 20
-321.8728262305038
 30
0.0
 10
400.1145046738528
 20
-321.7723357305329
 30
0.0
  0
SPLINE
  5
145
330
1F
100
AcDbEntity
  8
0
  6
Continuous
 62
     7
370
    25
100
AcDbSpline
210
0.0
220
0.0
230
1.0
 70
     8
 71
     3
 72
    13
 73
     9
 74
     0
 42
0.00000001
 43
0.00000001
 40
0.0
 40
0.0
 40
0.0
 40
0.0
 40
0.0213876440744973
 40
0.2552341454926043
 40
0.4603303484885342
 40
0.6784187615832141
 40
0.8906960965912893
 40
1.0
 40
1.0
 40
1.0
 40
1.0
 10
441.5146958327991
 20
-199.8700720312789
 30
0.0
 10
441.5407598667041
 20
-199.8820484723871
 30
0.0
 10
441.8518007367824
 20
-200.0249719613716
 30
0.0
 10
442.2887583987571
 20
-200.5010355372548
 30
0.0
 10
442.8398470403606
 20
-201.3391858938237
 30
0.0
 10
443.212074570166
 20
-202.4048954861388
 30
0.0
 10
443.3876412583375
 20
-203.476151224763
 30
0.0
 10
443.4031719008778
 20
-204.1875153635997
 30
0.0
 10
443.4084506909604
 20
-204.4293045845836
 30
0.0
  0
SPLINE
  5
146
330
1F
100
AcDbEntity
  8
0
  6
Continuous
 62
     7
370
    25
100
AcDbSpline
210
0.0
220
0.0
230
1.0
 70
     8
 71
     3
 72
    22
 73
    18
 74
     0
 42
0.00000001
 43
0.00000001
 40
0.0
 40
0.0
 40
0.0
 40
0.0
 40
0.0357957841880394
 40
0.1045261594770979
 40
0.1734959821004534
 40
0.242674787728926
 40
0.3120162477226607
 40
0.3814428720991155
 40
0.4508656940685337
 40
0.5201663738648661
 40
0.5892547153370151
 40
0.6580502909886848
 40
0.7265115741575999
 40
0.7947102482258808
 40
0.8628985641336266
 40
0.9317178103463438
 40
1.0
 40
1.0
 40
1.0
 40
1.0
 10
443.4084506909604
 20
-204.4293045845836
 30
0.0
 10
443.4031472237693
 20
-204.6788630957161
 30
0.0
 10
443.387660733671
 20
-205.4075911659402
 30
0.0
 10
443.212325875684
 20
-206.709553867659
 30
0.0
 10
442.8169818914359
 20
-208.3250497083208
 30
0.0
 10
442.2298738553855
 20
-209.972616644022
 30
0.0
 10
441.4683843766721
 20
-211.603231030875
 30
0.0
 10
440.5516297530147
 20
-213.1717187177392
 30
0.0
 10
439.5054596116362
 20
-214.6336098454547
 30
0.0
 10
438.3602145640382
 20
-215.9480809000252
 30
0.0
 10
437.1503302779035
 20
-217.0791077261107
 30
0.0
 10
435.9130566206552
 20
-217.9973351655226
 30
0.0
 10
434.6877713791153
 20
-218.6809541439633
 30
0.0
 10
433.5129107901104
 20
-219.1196620398487
 30
0.0
 10
432.4279583136311
 20
-219.3076196630387
 30
0.0
 10
431.4579297031199
 20
-219.2756902158317
 30
0.0
 10
430.9271200674896
 20
-219.0739188328864
 30
0.0
 10
430.6627548988751
 20
-218.9734283329154
 30
0.0
  0
LWPOLYLINE
  5
147
330
1F
100
AcDbEntity
  8
0
  6
Continuous
 62
     7
370
    25
100
AcDbPolyline
 90
      143
 70
   128
 43
0.0
 10
628.4671085561
 20
-182.5218729013
 10
628.3501441014
 20
-176.4853967925
 10
627.9994797008
 20
-170.595781654
 10
627.4158017962
 20
-164.8645566841
 10
626.6002529647
 20
-159.3029410247
 10
625.5544296812
 20
-153.9218217997
 10
624.2803791941
 20
-148.7317328027
 10
622.780595517
 20
-143.7428338766
 10
621.0580145468
 20
-138.9648910253
 10
619.1160083167
 20
-134.4072572964
 10
616.9583783951
 20
-130.0788544718
 10
614.5893484439
 20
-125.9881556035
 10
612.0135559504
 20
-122.1431684264
 10
609.2360431495
 20
-118.5514196836
 10
606.2622471528
 20
-115.2199403919
 10
603.0979893057
 20
-112.1552520785
 10
599.7494637915
 20
-109.3633540146
 10
596.2232255062
 20
-106.8497114719
 10
592.5261772267
 20
-104.6192450236
 10
588.6655560988
 20
-102.6763209125
 10
584.6489194695
 20
-101.0247425039
 10
580.4841300937
 20
-99.6677428401
 10
576.1793407421
 20
-98.6079783115
 10
571.7429782421
 20
-97.8475234571
 10
567.1837269816
 20
-97.3878669029
 10
562.5105119091
 20
-97.2299084482
 10
557.7324810625
 20
-97.3739573041
 10
552.8589876615
 20
-97.8197314883
 10
547.8995717984
 20
-98.5663583767
 10
542.8639417625
 20
-99.6123764123
 10
537.7619550363
 20
-100.9557379655
 10
532.6035989982
 20
-102.5938133431
 10
527.3989713724
 20
-104.5233959356
 10
522.158260462
 20
-106.7407084945
 10
516.8917252047
 20
-109.2414105262
 10
511.6096750905
 20
-112.0206067891
 10
506.3224499806
 20
-115.0728568761
 10
501.0403998664
 20
-118.3921858643
 10
495.773864609
 20
-121.9720960112
 10
490.5331536986
 20
-125.8055794747
 10
485.3285260729
 20
-129.8851320308
 10
480.1701700348
 20
-134.2027677639
 10
475.0681833085
 20
-138.7500346993
 10
470.0325532727
 20
-143.5180313483
 10
465.0731374096
 20
-148.4974241337
 10
460.1996440086
 20
-153.6784656602
 10
455.421613162
 20
-159.0510137957
 10
450.7483980894
 20
-164.604551525
 10
446.1891468289
 20
-170.3282075372
 10
441.752784329
 20
-176.2107775068
 10
437.4479949774
 20
-182.2407460269
 10
433.2832056016
 20
-188.4063091509
 10
429.2665689723
 20
-194.6953974995
 10
425.4059478444
 20
-201.0956998869
 10
421.7088995649
 20
-207.5946874207
 10
418.1826612796
 20
-214.1796380274
 10
414.8341357654
 20
-220.8376613572
 10
411.6698779183
 20
-227.5557240166
 10
408.6960819216
 20
-234.3206750826
 10
405.9185691207
 20
-241.1192718457
 10
403.3427766272
 20
-247.9382057334
 10
400.973746676
 20
-254.7641283626
 10
398.8161167544
 20
-261.5836776691
 10
396.8741105243
 20
-268.3835040649
 10
395.1515295541
 20
-275.1502965705
 10
393.651745877
 20
-281.8708088718
 10
392.3776953898
 20
-288.5318852504
 10
391.3318721064
 20
-295.1204863364
 10
390.5163232749
 20
-301.6237146339
 10
389.9326453703
 20
-308.0288397681
 10
389.5819809697
 20
-314.3233234056
 10
389.465016515
 20
-320.4948437993
 10
389.5819809697
 20
-326.5313199081
 10
389.9326453703
 20
-332.4209350466
 10
390.5163232749
 20
-338.1521600165
 10
391.3318721064
 20
-343.7137756759
 10
392.3776953898
 20
-349.0948949009
 10
393.651745877
 20
-354.2849838979
 10
395.1515295541
 20
-359.273882824
 10
396.8741105243
 20
-364.0518256753
 10
398.8161167544
 20
-368.6094594042
 10
400.973746676
 20
-372.9378622288
 10
403.3427766272
 20
-377.0285610971
 10
405.9185691207
 20
-380.8735482742
 10
408.6960819216
 20
-384.465297017
 10
411.6698779183
 20
-387.7967763087
 10
414.8341357654
 20
-390.8614646221
 10
418.1826612796
 20
-393.653362686
 10
421.7088995649
 20
-396.1670052287
 10
425.4059478444
 20
-398.397471677
 10
429.2665689723
 20
-400.3403957881
 10
433.2832056016
 20
-401.9919741967
 10
437.4479949774
 20
-403.3489738605
 10
441.752784329
 20
-404.4087383891
 10
446.1891468289
 20
-405.1691932435
 10
450.7483980894
 20
-405.6288497977
 10
455.421613162
 20
-405.7868082524
 10
460.1996440086
 20
-405.6427593965
 10
465.0731374096
 20
-405.1969852123
 10
470.0325532727
 20
-404.4503583239
 10
475.0681833085
 20
-403.4043402883
 10
480.1701700348
 20
-402.0609787351
 10
485.3285260729
 20
-400.4229033575
 10
490.5331536986
 20
-398.493320765
 10
495.773864609
 20
-396.2760082061
 10
501.0403998664
 20
-393.7753061744
 10
506.3224499806
 20
-390.9961099115
 10
511.6096750905
 20
-387.9438598245
 10
516.8917252047
 20
-384.6245308363
 10
522.1582604621
 20
-381.0446206894
 10
527.3989713724
 20
-377.2111372259
 10
532.6035989982
 20
-373.1315846698
 10
537.7619550363
 20
-368.8139489367
 10
542.8639417625
 20
-364.2666820013
 10
547.8995717984
 20
-359.4986853523
 10
552.8589876615
 20
-354.5192925669
 10
557.7324810625
 20
-349.3382510404
 10
562.5105119091
 20
-343.9657029049
 10
567.1837269817
 20
-338.4121651756
 10
571.7429782421
 20
-332.6885091634
 10
576.1793407421
 20
-326.8059391938
 10
580.4841300937
 20
-320.7759706737
 10
584.6489194695
 20
-314.6104075497
 10
588.6655560988
 20
-308.3213192011
 10
592.5261772267
 20
-301.9210168137
 10
596.2232255062
 20
-295.4220292799
 10
599.7494637915
 20
-288.8370786732
 10
603.0979893057
 20
-282.1790553434
 10
606.2622471528
 20
-275.460992684
 10
609.2360431495
 20
-268.696041618
 10
612.0135559504
 20
-261.8974448549
 10
614.5893484439
 20
-255.0785109672
 10
616.9583783951
 20
-248.252588338
 10
619.1160083167
 20
-241.4330390315
 10
621.0580145468
 20
-234.6332126357
 10
622.780595517
 20
-227.8664201301
 10
624.2803791941
 20
-221.1459078288
 10
625.5544296812
 20
-214.4848314502
 10
626.6002529647
 20
-207.8962303642
 10
627.4158017962
 20
-201.3930020667
 10
627.9994797008
 20
-194.9878769325
 10
628.3501441014
 20
-188.693393295
 10
628.4671085561
 20
-182.5218729013
  0
ARC
  5
148
330
1F
100
AcDbEntity
  8
0
  6
Continuous
 62
     7
370
    25
100
AcDbCircle
 10
454.010228378
 20
-348.3424069143
 30
0.0
 40
58.63287495480899
100
AcDbArc
 50
216.438395098
 51
263.7566188203
  0
ARC
  5
149
330
1F
100
AcDbEntity
  8
0
  6
Continuous
 62
     7
370
    25
100
AcDbCircle
 10
565.3172656144
 20
-155.5297036183
 30
0.0
 40
58.67539610596672
100
AcDbArc
 50
35.9920319255
 51
83.9296821213
  0
ARC
  5
14A
330
1F
100
AcDbEntity
  8
0
  6
Continuous
 62
     7
370
    25
100
AcDbCircle
 10
582.1793705188
 20
-166.5402944796
 30
0.0
 40
59.81059142597451
100
AcDbArc
 50
35.9109497709
 51
59.7127974323
  0
ARC
  5
14B
330
1F
100
AcDbEntity
  8
0
  6
Continuous
 62
     7
370
    25
100
AcDbCircle
 10
472.046658679
 20
-357.2149050176
 30
0.0
 40
59.99580439841905
100
AcDbArc
 50
240.340153203
 51
263.3447696417
  0
LWPOLYLINE
  5
14C
330
1F
100
AcDbEntity
  8
0
  6
Continuous
 62
     7
370
    25
100
AcDbPolyline
 90
       38
 70
   128
 43
0.0
 10
413.1530936848
 20
-306.8200079263
 10
413.0310406367
 20
-308.5464204555
 10
412.6683927367
 20
-310.3640866893
 10
412.0755827044
 20
-312.2207156794
 10
411.2696646051
 20
-314.0628955902
 10
410.2738232353
 20
-315.8376302596
 10
409.1167071381
 20
-317.4938638026
 10
407.8316044367
 20
-318.9839493955
 10
406.4554851961
 20
-320.2650199888
 10
405.0279378615
 20
-321.3002215141
 10
403.5900303704
 20
-322.0597731081
 10
402.1831287034
 20
-322.5218238546
 10
400.84770686
 20
-322.6730813947
 10
399.6221824951
 20
-322.5091943244
 10
398.5418117135
 20
-322.0348773763
 10
397.6376748154
 20
-321.2637757855
 10
396.9357821733
 20
-320.2180727408
 10
396.4563259607
 20
-318.9278512148
 10
396.2130992596
 20
-317.4302285318
 10
396.2130992596
 20
-315.7682885696
 10
396.4563259607
 20
-313.9898423151
 10
396.9357821733
 20
-312.146052429
 10
397.6376748154
 20
-310.2899613893
 10
398.5418117135
 20
-308.4749655559
 10
399.6221824951
 20
-306.7532790544
 10
400.84770686
 20
-305.1744316707
 10
402.1831287034
 20
-303.7838439694
 10
403.5900303704
 20
-302.621520627
 10
405.0279378615
 20
-301.7208995696
 10
406.4554851961
 20
-301.1078900254
 10
407.8316044367
 20
-300.8001271629
 10
409.1167071381
 20
-300.8064647593
 10
410.2738232353
 20
-301.1267204934
 10
411.2696646051
 20
-301.7516811909
 10
412.0755827044
 20
-302.6633678704
 10
412.6683927367
 20
-303.835552966
 10
413.0310406367
 20
-305.2345148467
 10
413.1530936848
 20
-306.8200079263
  0
LWPOLYLINE
  5
14D
330
1F
100
AcDbEntity
  8
0
  6
Continuous
 62
     7
370
    25
100
AcDbPolyline
 90
       38
 70
   128
 43
0.0
 10
591.2013439098
 20
-289.1987188301
 10
591.0792908618
 20
-290.9251313593
 10
590.7166429617
 20
-292.7427975931
 10
590.1238329294
 20
-294.5994265832
 10
589.3179148301
 20
-296.4416064939
 10
588.3220734603
 20
-298.2163411634
 10
587.1649573631
 20
-299.8725747063
 10
585.8798546617
 20
-301.3626602992
 10
584.5037354212
 20
-302.6437308926
 10
583.0761880865
 20
-303.6789324178
 10
581.6382805954
 20
-304.4384840119
 10
580.2313789285
 20
-304.9005347584
 10
578.895957085
 20
-305.0517922985
 10
577.6704327201
 20
-304.8879052282
 10
576.5900619385
 20
-304.4135882801
 10
575.6859250404
 20
-303.6424866893
 10
574.9840323984
 20
-302.5967836446
 10
574.5045761857
 20
-301.3065621186
 10
574.2613494847
 20
-299.8089394356
 10
574.2613494847
 20
-298.1469994734
 10
574.5045761857
 20
-296.3685532189
 10
574.9840323984
 20
-294.5247633328
 10
575.6859250404
 20
-292.6686722931
 10
576.5900619385
 20
-290.8536764597
 10
577.6704327201
 20
-289.1319899582
 10
578.895957085
 20
-287.5531425745
 10
580.2313789285
 20
-286.1625548732
 10
581.6382805954
 20
-285.0002315307
 10
583.0761880865
 20
-284.0996104734
 10
584.5037354212
 20
-283.4866009292
 10
585.8798546617
 20
-283.1788380667
 10
587.1649573631
 20
-283.1851756631
 10
588.3220734603
 20
-283.5054313972
 10
589.3179148301
 20
-284.1303920947
 10
590.1238329294
 20
-285.0420787742
 10
590.7166429617
 20
-286.2142638698
 10
591.0792908618
 20
-287.6132257505
 10
591.2013439098
 20
-289.1987188301
  0
LWPOLYLINE
  5
14E
330
1F
100
AcDbEntity
  8
0
  6
Continuous
 62
     7
370
    25
100
AcDbPolyline
 90
       38
 70
   128
 43
0.0
 10
591.2013439098
 20
-118.8711629961
 10
591.0792908618
 20
-120.5975755253
 10
590.7166429617
 20
-122.4152417591
 10
590.1238329294
 20
-124.2718707492
 10
589.3179148301
 20
-126.1140506599
 10
588.3220734604
 20
-127.8887853294
 10
587.1649573631
 20
-129.5450188723
 10
585.8798546617
 20
-131.0351044652
 10
584.5037354212
 20
-132.3161750586
 10
583.0761880865
 20
-133.3513765838
 10
581.6382805954
 20
-134.1109281779
 10
580.2313789285
 20
-134.5729789244
 10
578.895957085
 20
-134.7242364645
 10
577.6704327201
 20
-134.5603493942
 10
576.5900619385
 20
-134.0860324461
 10
575.6859250404
 20
-133.3149308553
 10
574.9840323984
 20
-132.2692278106
 10
574.5045761857
 20
-130.9790062846
 10
574.2613494847
 20
-129.4813836016
 10
574.2613494847
 20
-127.8194436394
 10
574.5045761857
 20
-126.0409973849
 10
574.9840323984
 20
-124.1972074988
 10
575.6859250404
 20
-122.3411164591
 10
576.5900619385
 20
-120.5261206257
 10
577.6704327201
 20
-118.8044341242
 10
578.895957085
 20
-117.2255867404
 10
580.2313789285
 20
-115.8349990392
 10
581.6382805954
 20
-114.6726756967
 10
583.0761880865
 20
-113.7720546394
 10
584.5037354212
 20
-113.1590450952
 10
585.8798546617
 20
-112.8512822327
 10
587.1649573631
 20
-112.8576198291
 10
588.3220734604
 20
-113.1778755632
 10
589.3179148301
 20
-113.8028362607
 10
590.1238329294
 20
-114.7145229402
 10
590.7166429617
 20
-115.8867080358
 10
591.0792908618
 20
-117.2856699165
 10
591.2013439098
 20
-118.8711629961
  0
LWPOLYLINE
  5
14F
330
1F
100
AcDbEntity
  8
0
  6
Continuous
 62
     7
370
    25
100
AcDbPolyline
 90
       38
 70
   128
 43
0.0
 10
517.4513439098
 20
-126.1701399262
 10
517.3292908618
 20
-127.8965524555
 10
516.9666429617
 20
-129.7142186892
 10
516.3738329294
 20
-131.5708476793
 10
515.5679148301
 20
-133.4130275901
 10
514.5720734604
 20
-135.1877622595
 10
513.4149573631
 20
-136.8439958025
 10
512.1298546617
 20
-138.3340813954
 10
510.7537354212
 20
-139.6151519887
 10
509.3261880865
 20
-140.650353514
 10
507.8882805954
 20
-141.4099051081
 10
506.4813789285
 20
-141.8719558545
 10
505.145957085
 20
-142.0232133946
 10
503.9204327201
 20
-141.8593263243
 10
502.8400619385
 20
-141.3850093763
 10
501.9359250404
 20
-140.6139077854
 10
501.2340323984
 20
-139.5682047407
 10
500.7545761857
 20
-138.2779832147
 10
500.5113494847
 20
-136.7803605317
 10
500.5113494847
 20
-135.1184205695
 10
500.7545761857
 20
-133.339974315
 10
501.2340323984
 20
-131.4961844289
 10
501.9359250404
 20
-129.6400933892
 10
502.8400619385
 20
-127.8250975559
 10
503.9204327201
 20
-126.1034110543
 10
505.145957085
 20
-124.5245636706
 10
506.4813789285
 20
-123.1339759693
 10
507.8882805954
 20
-121.9716526269
 10
509.3261880865
 20
-121.0710315695
 10
510.7537354212
 20
-120.4580220254
 10
512.1298546617
 20
-120.1502591629
 10
513.4149573631
 20
-120.1565967592
 10
514.5720734604
 20
-120.4768524933
 10
515.5679148302
 20
-121.1018131909
 10
516.3738329294
 20
-122.0134998703
 10
516.9666429617
 20
-123.1856849659
 10
517.3292908618
 20
-124.5846468466
 10
517.4513439098
 20
-126.1701399262
  0
LWPOLYLINE
  5
150
330
1F
100
AcDbEntity
  8
0
  6
Continuous
 62
     7
370
    25
100
AcDbPolyline
 90
      121
 70
   128
 43
0.0
 10
593.8188762779
 20
-202.5238716409
 10
593.7025884457
 20
-207.7191364817
 10
593.3540436859
 20
-213.0344245359
 10
592.7741973356
 20
-218.4551669683
 10
591.9646387132
 20
-223.9665059009
 10
590.9275867626
 20
-229.5533351366
 10
589.6658839712
 20
-235.2003415648
 10
588.1829885786
 20
-240.8920471335
 10
586.4829650981
 20
-246.6128512733
 10
584.5704731757
 20
-252.3470736577
 10
582.450754819
 20
-258.0789971818
 10
580.1296200286
 20
-263.7929110415
 10
577.6134308737
 20
-269.4731537963
 10
574.9090840537
 20
-275.1041562954
 10
572.0239919954
 20
-280.6704843524
 10
568.9660625355
 20
-286.1568810492
 10
565.7436772462
 20
-291.5483085536
 10
562.3656684616
 20
-296.8299893376
 10
558.8412950688
 20
-301.9874466814
 10
555.1802171305
 20
-307.0065443528
 10
551.3924694067
 20
-311.873525354
 10
547.4884338508
 20
-316.5750496284
 10
543.4788111527
 20
-321.0982306247
 10
539.3745914095
 20
-325.4306706183
 10
535.1870240025
 20
-329.5604946922
 10
530.9275867626
 20
-333.4763832857
 10
526.6079545114
 20
-337.1676032204
 10
522.2399670605
 20
-340.624037119
 10
517.83559676
 20
-343.8362111365
 10
513.4069156827
 20
-346.7953209271
 10
508.9660625355
 20
-349.4932557766
 10
504.5252093884
 20
-351.9226208331
 10
500.0965283111
 20
-354.0767573758
 10
495.6921580106
 20
-355.9497610663
 10
491.3241705597
 20
-357.5364981316
 10
487.0045383085
 20
-358.8326194356
 10
482.7451010686
 20
-359.8345724
 10
478.5575336615
 20
-360.5396107414
 10
474.4533139184
 20
-360.9458019986
 10
470.4436912203
 20
-361.0520328297
 10
466.5396556643
 20
-360.8580120634
 10
462.7519079406
 20
-360.364271497
 10
459.0908300022
 20
-359.5721644391
 10
455.5664566095
 20
-358.4838620002
 10
452.1884478248
 20
-357.1023471416
 10
448.9660625355
 20
-355.4314064994
 10
445.9081330757
 20
-353.4756200059
 10
443.0230410174
 20
-351.2403483358
 10
440.3186941974
 20
-348.7317182135
 10
437.8025050424
 20
-345.9566056197
 10
435.481370252
 20
-342.9226169451
 10
433.3616518953
 20
-339.6380681418
 10
431.449159973
 20
-336.1119619299
 10
429.7491364924
 20
-332.3539631212
 10
428.2662410999
 20
-328.3743721294
 10
427.0045383085
 20
-324.1840967367
 10
425.9674863579
 20
-319.7946221967
 10
425.1579277355
 20
-315.2179797541
 10
424.5780813851
 20
-310.4667136675
 10
424.2295366254
 20
-305.5538468272
 10
424.1132487932
 20
-300.4928450597
 10
424.2295366254
 20
-295.2975802189
 10
424.5780813851
 20
-289.9822921647
 10
425.1579277355
 20
-284.5615497323
 10
425.9674863579
 20
-279.0502107997
 10
427.0045383085
 20
-273.463381564
 10
428.2662410999
 20
-267.8163751358
 10
429.7491364924
 20
-262.1246695671
 10
431.449159973
 20
-256.4038654273
 10
433.3616518953
 20
-250.6696430429
 10
435.481370252
 20
-244.9377195188
 10
437.8025050424
 20
-239.2238056591
 10
440.3186941974
 20
-233.5435629043
 10
443.0230410174
 20
-227.9125604052
 10
445.9081330757
 20
-222.3462323482
 10
448.9660625355
 20
-216.8598356514
 10
452.1884478248
 20
-211.468408147
 10
455.5664566095
 20
-206.186727363
 10
459.0908300022
 20
-201.0292700192
 10
462.7519079406
 20
-196.0101723478
 10
466.5396556643
 20
-191.1431913466
 10
470.4436912203
 20
-186.4416670722
 10
474.4533139184
 20
-181.9184860759
 10
478.5575336615
 20
-177.5860460823
 10
482.7451010686
 20
-173.4562220084
 10
487.0045383085
 20
-169.5403334149
 10
491.3241705597
 20
-165.8491134802
 10
495.6921580106
 20
-162.3926795816
 10
500.0965283111
 20
-159.1805055641
 10
504.5252093884
 20
-156.2213957735
 10
508.9660625355
 20
-153.523460924
 10
513.4069156827
 20
-151.0940958675
 10
517.83559676
 20
-148.9399593248
 10
522.2399670605
 20
-147.0669556343
 10
526.6079545114
 20
-145.480218569
 10
530.9275867626
 20
-144.184097265
 10
535.1870240025
 20
-143.1821443006
 10
539.3745914095
 20
-142.4771059592
 10
543.4788111527
 20
-142.070914702
 10
547.4884338508
 20
-141.9646838709
 10
551.3924694067
 20
-142.1587046372
 10
555.1802171305
 20
-142.6524452036
 10
558.8412950688
 20
-143.4445522615
 10
562.3656684616
 20
-144.5328547004
 10
565.7436772462
 20
-145.914369559
 10
568.9660625355
 20
-147.5853102012
 10
572.0239919954
 20
-149.5410966947
 10
574.9090840537
 20
-151.7763683648
 10
577.6134308737
 20
-154.2849984871
 10
580.1296200286
 20
-157.0601110809
 10
582.450754819
 20
-160.0940997555
 10
584.5704731757
 20
-163.3786485588
 10
586.4829650981
 20
-166.9047547707
 10
588.1829885786
 20
-170.6627535794
 10
589.6658839712
 20
-174.6423445712
 10
590.9275867626
 20
-178.8326199639
 10
591.9646387132
 20
-183.2220945039
 10
592.7741973356
 20
-187.7987369465
 10
593.3540436859
 20
-192.5500030331
 10
593.7025884457
 20
-197.4628698734
 10
593.8188762779
 20
-202.5238716409
  0
LWPOLYLINE
  5
151
330
1F
100
AcDbEntity
  8
0
  6
Continuous
 62
     7
370
    25
100
AcDbPolyline
 90
       38
 70
   128
 43
0.0
 10
517.4513439098
 20
-367.0496794325
 10
517.3292908618
 20
-368.7760919618
 10
516.9666429617
 20
-370.5937581955
 10
516.3738329294
 20
-372.4503871856
 10
515.5679148301
 20
-374.2925670964
 10
514.5720734603
 20
-376.0673017658
 10
513.4149573631
 20
-377.7235353088
 10
512.1298546617
 20
-379.2136209017
 10
510.7537354212
 20
-380.494691495
 10
509.3261880865
 20
-381.5298930203
 10
507.8882805954
 20
-382.2894446144
 10
506.4813789285
 20
-382.7514953608
 10
505.145957085
 20
-382.9027529009
 10
503.9204327201
 20
-382.7388658306
 10
502.8400619385
 20
-382.2645488826
 10
501.9359250404
 20
-381.4934472918
 10
501.2340323984
 20
-380.447744247
 10
500.7545761857
 20
-379.157522721
 10
500.5113494847
 20
-377.659900038
 10
500.5113494847
 20
-375.9979600759
 10
500.7545761857
 20
-374.2195138213
 10
501.2340323984
 20
-372.3757239352
 10
501.9359250404
 20
-370.5196328956
 10
502.8400619385
 20
-368.7046370622
 10
503.9204327201
 20
-366.9829505606
 10
505.145957085
 20
-365.4041031769
 10
506.4813789285
 20
-364.0135154757
 10
507.8882805954
 20
-362.8511921332
 10
509.3261880865
 20
-361.9505710758
 10
510.7537354212
 20
-361.3375615317
 10
512.1298546617
 20
-361.0297986692
 10
513.4149573631
 20
-361.0361362655
 10
514.5720734603
 20
-361.3563919997
 10
515.5679148301
 20
-361.9813526972
 10
516.3738329294
 20
-362.8930393767
 10
516.9666429617
 20
-364.0652244722
 10
517.3292908618
 20
-365.4641863529
 10
517.4513439098
 20
-367.0496794325
  0
LWPOLYLINE
  5
152
330
1F
100
AcDbEntity
  8
0
  6
Continuous
 62
     7
370
    25
100
AcDbPolyline
 90
       38
 70
   128
 43
0.0
 10
621.7495941348
 20
-186.3998114325
 10
621.6275410868
 20
-188.1262239617
 10
621.2648931867
 20
-189.9438901955
 10
620.6720831544
 20
-191.8005191856
 10
619.8661650552
 20
-193.6426990963
 10
618.8703236854
 20
-195.4174337658
 10
617.7132075881
 20
-197.0736673087
 10
616.4281048867
 20
-198.5637529016
 10
615.0519856462
 20
-199.844823495
 10
613.6244383115
 20
-200.8800250202
 10
612.1865308205
 20
-201.6395766143
 10
610.7796291535
 20
-202.1016273608
 10
609.44420731
 20
-202.2528849009
 10
608.2186829452
 20
-202.0889978306
 10
607.1383121635
 20
-201.6146808825
 10
606.2341752654
 20
-200.8435792917
 10
605.5322826234
 20
-199.7978762469
 10
605.0528264107
 20
-198.507654721
 10
604.8095997097
 20
-197.010032038
 10
604.8095997097
 20
-195.3480920758
 10
605.0528264107
 20
-193.5696458213
 10
605.5322826234
 20
-191.7258559352
 10
606.2341752654
 20
-189.8697648955
 10
607.1383121635
 20
-188.0547690621
 10
608.2186829452
 20
-186.3330825605
 10
609.44420731
 20
-184.7542351768
 10
610.7796291535
 20
-183.3636474756
 10
612.1865308205
 20
-182.2013241331
 10
613.6244383115
 20
-181.3007030758
 10
615.0519856462
 20
-180.6876935316
 10
616.4281048867
 20
-180.3799306691
 10
617.7132075881
 20
-180.3862682655
 10
618.8703236854
 20
-180.7065239996
 10
619.8661650552
 20
-181.3314846971
 10
620.6720831544
 20
-182.2431713766
 10
621.2648931867
 20
-183.4153564722
 10
621.6275410868
 20
-184.8143183529
 10
621.7495941348
 20
-186.3998114325
  0
LWPOLYLINE
  5
153
330
1F
100
AcDbEntity
  8
0
  6
Continuous
 62
     7
370
    25
100
AcDbPolyline
 90
       38
 70
   128
 43
0.0
 10
443.7013439098
 20
-374.3486563627
 10
443.5792908618
 20
-376.0750688919
 10
443.2166429617
 20
-377.8927351257
 10
442.6238329294
 20
-379.7493641158
 10
441.8179148301
 20
-381.5915440265
 10
440.8220734603
 20
-383.366278696
 10
439.6649573631
 20
-385.0225122389
 10
438.3798546617
 20
-386.5125978318
 10
437.0037354212
 20
-387.7936684252
 10
435.5761880865
 20
-388.8288699505
 10
434.1382805954
 20
-389.5884215445
 10
432.7313789285
 20
-390.050472291
 10
431.395957085
 20
-390.2017298311
 10
430.1704327201
 20
-390.0378427608
 10
429.0900619385
 20
-389.5635258127
 10
428.1859250404
 20
-388.7924242219
 10
427.4840323984
 20
-387.7467211772
 10
427.0045761857
 20
-386.4564996512
 10
426.7613494847
 20
-384.9588769682
 10
426.7613494847
 20
-383.296937006
 10
427.0045761857
 20
-381.5184907515
 10
427.4840323984
 20
-379.6747008654
 10
428.1859250404
 20
-377.8186098257
 10
429.0900619385
 20
-376.0036139923
 10
430.1704327201
 20
-374.2819274908
 10
431.395957085
 20
-372.7030801071
 10
432.7313789285
 20
-371.3124924058
 10
434.1382805954
 20
-370.1501690633
 10
435.5761880865
 20
-369.249548006
 10
437.0037354212
 20
-368.6365384618
 10
438.3798546617
 20
-368.3287755993
 10
439.6649573631
 20
-368.3351131957
 10
440.8220734603
 20
-368.6553689298
 10
441.8179148301
 20
-369.2803296273
 10
442.6238329294
 20
-370.1920163068
 10
443.2166429617
 20
-371.3642014024
 10
443.5792908618
 20
-372.7631632831
 10
443.7013439098
 20
-374.3486563627
  0
LWPOLYLINE
  5
154
330
1F
100
AcDbEntity
  8
0
  6
Continuous
 62
     7
370
    25
100
AcDbPolyline
 90
       38
 70
   128
 43
0.0
 10
443.7013439098
 20
-204.0211005287
 10
443.5792908618
 20
-205.7475130579
 10
443.2166429617
 20
-207.5651792917
 10
442.6238329294
 20
-209.4218082818
 10
441.8179148301
 20
-211.2639881925
 10
440.8220734603
 20
-213.038722862
 10
439.6649573631
 20
-214.6949564049
 10
438.3798546617
 20
-216.1850419978
 10
437.0037354212
 20
-217.4661125912
 10
435.5761880865
 20
-218.5013141164
 10
434.1382805954
 20
-219.2608657105
 10
432.7313789285
 20
-219.722916457
 10
431.395957085
 20
-219.8741739971
 10
430.1704327201
 20
-219.7102869268
 10
429.0900619385
 20
-219.2359699787
 10
428.1859250404
 20
-218.4648683879
 10
427.4840323984
 20
-217.4191653432
 10
427.0045761857
 20
-216.1289438172
 10
426.7613494847
 20
-214.6313211342
 10
426.7613494847
 20
-212.969381172
 10
427.0045761857
 20
-211.1909349175
 10
427.4840323984
 20
-209.3471450314
 10
428.1859250404
 20
-207.4910539917
 10
429.0900619385
 20
-205.6760581583
 10
430.1704327201
 20
-203.9543716568
 10
431.395957085
 20
-202.3755242731
 10
432.7313789285
 20
-200.9849365718
 10
434.1382805954
 20
-199.8226132293
 10
435.5761880865
 20
-198.921992172
 10
437.0037354212
 20
-198.3089826278
 10
438.3798546617
 20
-198.0012197653
 10
439.6649573631
 20
-198.0075573617
 10
440.8220734603
 20
-198.3278130958
 10
441.8179148301
 20
-198.9527737933
 10
442.6238329294
 20
-199.8644604728
 10
443.2166429617
 20
-201.0366455684
 10
443.5792908618
 20
-202.4356074491
 10
443.7013439098
 20
-204.0211005287
  0
ARC
  5
155
330
1F
100
AcDbEntity
  8
0
  6
Continuous
 62
     7
370
    25
100
AcDbCircle
 10
548.8328480856
 20
-184.0755660621
 30
0.0
 40
40.65882302066449
100
AcDbArc
 50
39.9578605723
 51
80.6291258395
  0
ARC
  5
156
330
1F
100
AcDbEntity
  8
0
  6
Continuous
 62
     7
370
    25
100
AcDbCircle
 10
470.7047055281
 20
-319.3775676618
 30
0.0
 40
41.06591785042038
100
AcDbArc
 50
215.7703818597
 51
260.7935719348
  0
LWPOLYLINE
  5
157
330
1F
100
AcDbEntity
  8
0
  6
Continuous
 62
     7
370
    25
100
AcDbPolyline
 90
        3
 70
   128
 43
0.0
 10
459.6768530177
 20
-358.9356268852
 10
458.2462071482
 20
-357.4561741845
 10
456.9332374747
 20
-355.9655022451
  0
ARC
  5
158
330
1F
100
AcDbEntity
  8
0
  6
Continuous
 62
     7
370
    25
100
AcDbCircle
 10
565.6271001754
 20
-197.7953079124
 30
0.0
 40
44.27219279665893
100
AcDbArc
 50
74.6492545986
 51
83.4660152342
  0
LINE
  5
159
330
1F
100
AcDbEntity
  8
0
  6
Continuous
 62
     7
370
    25
100
AcDbLine
 10
589.0437216119
 20
-285.0518285614
 30
0.0
 11
588.9227223462
 21
-284.9788340707
 31
0.0
  0
LINE
  5
15A
330
1F
100
AcDbEntity
  8
0
  6
Continuous
 62
     7
370
    25
100
AcDbLine
 10
577.9236162872
 20
-304.0319090431
 30
0.0
 11
578.2125351675
 21
-304.1820301728
 31
0.0
  0
LINE
  5
15B
330
1F
100
AcDbEntity
  8
0
  6
Continuous
 62
     7
370
    25
100
AcDbLine
 10
619.5919718369
 20
-182.2529211638
 30
0.0
 11
619.4709725712
 21
-182.1799266731
 31
0.0
  0
LINE
  5
15C
330
1F
100
AcDbEntity
  8
0
  6
Continuous
 62
     7
370
    25
100
AcDbLine
 10
608.4718665122
 20
-201.2330016455
 30
0.0
 11
608.7607853925
 21
-201.3831227752
 31
0.0
  0
LINE
  5
15D
330
1F
100
AcDbEntity
  8
0
  6
Continuous
 62
     7
370
    25
100
AcDbLine
 10
515.2937216119
 20
-362.9027891638
 30
0.0
 11
515.1727223462
 21
-362.8297946732
 31
0.0
  0
LINE
  5
15E
330
1F
100
AcDbEntity
  8
0
  6
Continuous
 62
     7
370
    25
100
AcDbLine
 10
504.1736162872
 20
-381.8828696456
 30
0.0
 11
504.4625351674
 21
-382.0329907752
 31
0.0
  0
LINE
  5
15F
330
1F
100
AcDbEntity
  8
0
  6
Continuous
 62
     7
370
    25
100
AcDbLine
 10
589.0437216119
 20
-114.7242727274
 30
0.0
 11
588.9227223462
 21
-114.6512782367
 31
0.0
  0
LINE
  5
160
330
1F
100
AcDbEntity
  8
0
  6
Continuous
 62
     7
370
    25
100
AcDbLine
 10
577.9236162872
 20
-133.7043532091
 30
0.0
 11
578.2125351675
 21
-133.8544743388
 31
0.0
  0
LINE
  5
161
330
1F
100
AcDbEntity
  8
0
  6
Continuous
 62
     7
370
    25
100
AcDbLine
 10
441.5437216119
 20
-370.201766094
 30
0.0
 11
441.4227223462
 21
-370.1287716033
 31
0.0
  0
LINE
  5
162
330
1F
100
AcDbEntity
  8
0
  6
Continuous
 62
     7
370
    25
100
AcDbLine
 10
430.4236162872
 20
-389.1818465757
 30
0.0
 11
430.7125351674
 21
-389.3319677054
 31
0.0
  0
LINE
  5
163
330
1F
100
AcDbEntity
  8
0
  6
Continuous
 62
     7
370
    25
100
AcDbLine
 10
515.2937216119
 20
-122.0232496575
 30
0.0
 11
515.1727223462
 21
-121.9502551669
 31
0.0
  0
LINE
  5
164
330
1F
100
AcDbEntity
  8
0
  6
Continuous
 62
     7
370
    25
100
AcDbLine
 10
504.1736162872
 20
-141.0033301393
 30
0.0
 11
504.4625351675
 21
-141.1534512689
 31
0.0
  0
LINE
  5
165
330
1F
100
AcDbEntity
  8
0
  6
Continuous
 62
     7
370
    25
100
AcDbLine
 10
410.9954713868
 20
-302.6731176576
 30
0.0
 11
410.8744721212
 21
-302.6001231669
 31
0.0
  0
LINE
  5
166
330
1F
100
AcDbEntity
  8
0
  6
Continuous
 62
     7
370
    25
100
AcDbLine
 10
399.8753660622
 20
-321.6531981393
 30
0.0
 11
400.1642849424
 21
-321.803319269
 31
0.0
  0
LINE
  5
167
330
1F
100
AcDbEntity
  8
0
  6
Continuous
 62
     7
370
    25
100
AcDbLine
 10
441.5437216119
 20
-199.87421026
 30
0.0
 11
441.4227223462
 21
-199.8012157693
 31
0.0
  0
LINE
  5
168
330
1F
100
AcDbEntity
  8
0
  6
Continuous
 62
     7
370
    25
100
AcDbLine
 10
430.4236162872
 20
-218.8542907417
 30
0.0
 11
430.7125351675
 21
-219.0044118714
 31
0.0
  0
LWPOLYLINE
  5
169
330
1F
100
AcDbEntity
  8
0
  6
Continuous
 62
     1
370
    25
100
AcDbPolyline
 90
       49
 70
   128
 43
0.0
 10
629.8813221184
 20
-182.5218729013
 10
629.7636655664
 20
-188.7299111671
 10
629.4109262285
 20
-195.06164027
 10
628.8237946085
 20
-201.5046655529
 10
628.0034200442
 20
-208.0463744912
 10
626.9514084574
 20
-214.6739613825
 10
625.66981921
 20
-221.3744524142
 10
624.1611610732
 20
-228.1347310604
 10
622.4283873162
 20
-234.9415637584
 10
620.474889925
 20
-241.7816258133
 10
618.3044929625
 20
-248.6415274826
 10
615.9214450825
 20
-255.5078401865
 10
613.3304112134
 20
-262.3671227955
 10
610.5364634254
 20
-269.2059479418
 10
607.5450710027
 20
-276.010928304
 10
604.3620897364
 20
-282.7687428135
 10
600.9937504618
 20
-289.466162731
 10
597.4466468612
 20
-296.0900775425
 10
593.7277225564
 20
-302.6275206238
 10
589.8442575164
 20
-309.065694623
 10
585.8038538065
 20
-315.3919965121
 10
581.6144207066
 20
-321.5940422582
 10
577.2841592287
 20
-327.6596910654
 10
572.821546063
 20
-333.5770691413
 10
568.2353169844
 20
-339.3345929405
 10
563.5344497517
 20
-344.9209918398
 10
558.7281465332
 20
-350.325330201
 10
553.8258158931
 20
-355.537028778
 10
548.837054374
 20
-360.545885426
 10
543.7716277107
 20
-365.3420950729
 10
538.6394517139
 20
-369.9162689132
 10
533.450572859
 20
-374.2594527867
 10
528.2151486201
 20
-378.3631447071
 10
522.943427586
 20
-382.2193115047
 10
517.6457293981
 20
-385.8204045519
 10
512.3324245495
 20
-389.15937454
 10
507.0139140839
 20
-392.2296852784
 10
501.7006092353
 20
-395.0253264896
 10
496.4029110475
 20
-397.5408255748
 10
491.1311900133
 20
-399.7712583263
 10
485.8957657744
 20
-401.7122585673
 10
480.7068869195
 20
-403.3600266986
 10
475.5747109227
 20
-404.7113371368
 10
470.5092842595
 20
-405.7635446282
 10
465.5205227403
 20
-406.5145894272
 10
460.6181921003
 20
-406.9630013284
 10
455.8118888818
 20
-407.1079025444
 10
451.111021649
 20
-406.9490094243
 10
447.6337835845
 20
-406.6275248884
  0
LWPOLYLINE
  5
16A
330
1F
100
AcDbEntity
  8
0
  6
Continuous
 62
     1
370
    25
100
AcDbPolyline
 90
       14
 70
   128
 43
0.0
 10
612.7914540472
 20
-121.0477729757
 10
613.3304112134
 20
-121.7858979857
 10
615.9214450825
 20
-125.6536365662
 10
618.3044929625
 20
-129.7685407533
 10
620.474889925
 20
-134.1225554289
 10
622.4283873162
 20
-138.7071574048
 10
624.1611610732
 20
-143.5133721072
 10
625.66981921
 20
-148.5317911453
 10
626.9514084574
 20
-153.7525907281
 10
628.0034200442
 20
-159.1655508953
 10
628.8237946085
 20
-164.760075523
 10
629.4109262285
 20
-170.5252130668
 10
629.7636655664
 20
-176.4496779989
 10
629.8813221184
 20
-182.5218729013
  0
LWPOLYLINE
  5
16B
330
1F
100
AcDbEntity
  8
0
  6
Continuous
 62
     1
370
    25
100
AcDbPolyline
 90
       14
 70
   128
 43
0.0
 10
647.5589916481
 20
-192.7269742991
 10
647.4413350961
 20
-186.6547793967
 10
647.0885957581
 20
-180.7303144645
 10
646.5014641382
 20
-174.9651769208
 10
645.6810895739
 20
-169.3706522931
 10
644.629077987
 20
-163.9576921259
 10
643.3474887396
 20
-158.7368925431
 10
641.8388306029
 20
-153.718473505
 10
640.1060568459
 20
-148.9122588025
 10
638.1525594547
 20
-144.3276568267
 10
635.9821624921
 20
-139.9736421511
 10
633.5991146122
 20
-135.858737964
 10
631.008080743
 20
-131.9909993835
 10
630.6217367726
 20
-131.4597585877
  0
LWPOLYLINE
  5
16C
330
1F
100
AcDbEntity
  8
0
  6
Continuous
 62
     1
370
    25
100
AcDbPolyline
 90
       49
 70
   128
 43
0.0
 10
465.0934653141
 20
-416.8064283027
 10
468.7886911787
 20
-417.1541108221
 10
473.4895584114
 20
-417.3130039422
 10
478.29586163
 20
-417.1681027262
 10
483.19819227
 20
-416.719690825
 10
488.1869537891
 20
-415.9686460259
 10
493.2523804524
 20
-414.9164385345
 10
498.3845564492
 20
-413.5651280964
 10
503.5734353041
 20
-411.9173599651
 10
508.808859543
 20
-409.9763597241
 10
514.0805805771
 20
-407.7459269726
 10
519.378278765
 20
-405.2304278874
 10
524.6915836136
 20
-402.4347866762
 10
530.0100940792
 20
-399.3644759378
 10
535.3233989278
 20
-396.0255059497
 10
540.6210971157
 20
-392.4244129025
 10
545.8928181498
 20
-388.5682461049
 10
551.1282423887
 20
-384.4645541845
 10
556.3171212436
 20
-380.121370311
 10
561.4492972404
 20
-375.5471964707
 10
566.5147239037
 20
-370.7509868237
 10
571.5034854228
 20
-365.7421301757
 10
576.4058160628
 20
-360.5304315988
 10
581.2121192813
 20
-355.1260932376
 10
585.9129865141
 20
-349.5396943383
 10
590.4992155927
 20
-343.7821705391
 10
594.9618287583
 20
-337.8647924631
 10
599.2920902362
 20
-331.7991436559
 10
603.4815233362
 20
-325.5970979099
 10
607.5219270461
 20
-319.2707960207
 10
611.405392086
 20
-312.8326220216
 10
615.1243163908
 20
-306.2951789403
 10
618.6714199915
 20
-299.6712641288
 10
622.0397592661
 20
-292.9738442113
 10
625.2227405324
 20
-286.2160297018
 10
628.2141329551
 20
-279.4110493396
 10
631.008080743
 20
-272.5722241933
 10
633.5991146122
 20
-265.7129415843
 10
635.9821624921
 20
-258.8466288804
 10
638.1525594547
 20
-251.9867272111
 10
640.1060568459
 20
-245.1466651562
 10
641.8388306029
 20
-238.3398324582
 10
643.3474887396
 20
-231.5795538119
 10
644.629077987
 20
-224.8790627802
 10
645.6810895739
 20
-218.2514758889
 10
646.5014641382
 20
-211.7097669506
 10
647.0885957581
 20
-205.2667416678
 10
647.4413350961
 20
-198.9350125649
 10
647.5589916481
 20
-192.7269742991
  0
LWPOLYLINE
  5
16D
330
1F
100
AcDbEntity
  8
0
  6
Continuous
 62
     1
370
    25
100
AcDbPolyline
 90
       53
 70
   128
 43
0.0
 10
555.4530975772
 20
-143.9593326136
 10
554.9106431259
 20
-143.8697124658
 10
551.1031271161
 20
-143.4250155951
 10
547.1801383833
 20
-143.282704124
 10
543.1526110005
 20
-143.4431747002
 10
539.0317704089
 20
-143.9059800634
 10
534.8291021305
 20
-144.6698302921
 10
530.5563197554
 20
-145.7325963985
 10
526.2253322945
 20
-147.0913162631
 10
521.8482109866
 20
-148.7422028898
 10
517.4371556539
 20
-150.6806549616
 10
513.0044606988
 20
-152.9012696647
 10
508.5624808371
 20
-155.3978577478
 10
504.1235966634
 20
-158.163460772
 10
499.700180144
 20
-161.1903705058
 10
495.3045601342
 20
-164.4701504088
 10
490.9489880153
 20
-167.9936591462
 10
486.645603548
 20
-171.751076067
 10
482.4064010366
 20
-175.7319285766
 10
478.243195899
 20
-179.9251213249
 10
474.1675917344
 20
-184.3189671316
 10
470.1909479827
 20
-188.9012195605
 10
466.3243482633
 20
-193.6591070521
 10
462.578569483
 20
-198.5793685206
 10
458.9640517993
 20
-203.6482903149
 10
455.4908695211
 20
-208.8517444408
 10
452.1687030304
 20
-214.1752279383
 10
449.0068118011
 20
-219.6039033042
 10
446.0140085911
 20
-225.1226398465
 10
443.1986348797
 20
-230.7160558566
 10
440.5685376185
 20
-236.3685614809
 10
438.1310473602
 20
-242.0644021725
 10
435.8929578274
 20
-247.7877026016
 10
433.860506977
 20
-253.5225109036
 10
432.0393596141
 20
-259.2528431391
 10
430.434591603
 20
-264.9627278444
 10
429.05067572
 20
-270.6362505467
 10
427.8914691868
 20
-276.2575981206
 10
426.96020292
 20
-281.8111028623
 10
426.2594725257
 20
-287.2812861579
 10
425.7912310651
 20
-292.6529016255
 10
425.5567836113
 20
-297.9109776094
 10
425.5567836113
 20
-303.0408589086
 10
425.7912310651
 20
-308.0282476241
 10
426.2594725257
 20
-312.8592430088
 10
426.96020292
 20
-317.5203802121
 10
427.8914691868
 20
-321.9986678088
 10
429.05067572
 20
-326.2816240079
 10
430.434591603
 20
-330.3573114425
 10
432.0393596141
 20
-334.2143704407
 10
433.860506977
 20
-337.8420506872
 10
435.8929578274
 20
-341.2302411865
 10
437.3852121177
 20
-343.3821707156
  0
LWPOLYLINE
  5
16E
330
1F
100
AcDbEntity
  8
0
  6
Continuous
 62
     1
370
    25
100
AcDbPolyline
 90
       53
 70
   128
 43
0.0
 10
456.9332374747
 20
-355.9655022451
 10
455.8087168899
 20
-354.5745998418
 10
453.5706273571
 20
-351.4353425842
 10
451.5381765067
 20
-348.0471520849
 10
449.7170291438
 20
-344.4194718385
 10
448.1122611327
 20
-340.5624128403
 10
446.7283452496
 20
-336.4867254057
 10
445.5691387165
 20
-332.2037692065
 10
444.6378724496
 20
-327.7254816099
 10
443.9371420553
 20
-323.0643444065
 10
443.4689005948
 20
-318.2333490218
 10
443.234453141
 20
-313.2459603064
 10
443.234453141
 20
-308.1160790071
 10
443.4689005948
 20
-302.8580030233
 10
443.9371420553
 20
-297.4863875557
 10
444.6378724496
 20
-292.0162042601
 10
445.5691387165
 20
-286.4626995184
 10
446.7283452496
 20
-280.8413519445
 10
448.1122611327
 20
-275.1678292422
 10
449.7170291438
 20
-269.4579445369
 10
451.5381765067
 20
-263.7276123014
 10
453.5706273571
 20
-257.9928039994
 10
455.8087168899
 20
-252.2695035702
 10
458.2462071482
 20
-246.5736628787
 10
460.8763044094
 20
-240.9211572544
 10
463.6916781207
 20
-235.3277412442
 10
466.6844813307
 20
-229.809004702
 10
469.8463725601
 20
-224.3803293361
 10
473.1685390508
 20
-219.0568458386
 10
476.641721329
 20
-213.8533917127
 10
480.2562390127
 20
-208.7844699184
 10
484.0020177929
 20
-203.8642084498
 10
487.8686175124
 20
-199.1063209582
 10
491.845261264
 20
-194.5240685294
 10
495.9208654286
 20
-190.1302227226
 10
500.0840705663
 20
-185.9370299744
 10
504.3232730777
 20
-181.9561774648
 10
508.626657545
 20
-178.1987605439
 10
512.9822296639
 20
-174.6752518066
 10
517.3778496737
 20
-171.3954719036
 10
521.8012661931
 20
-168.3685621698
 10
526.2401503667
 20
-165.6029591456
 10
530.6821302285
 20
-163.1063710625
 10
535.1148251836
 20
-160.8857563593
 10
539.5258805163
 20
-158.9473042876
 10
543.9030018241
 20
-157.2964176609
 10
548.233989285
 20
-155.9376977963
 10
552.5067716601
 20
-154.8749316898
 10
556.7094399386
 20
-154.1110814612
 10
560.8302805301
 20
-153.648276098
 10
564.8578079129
 20
-153.4878055218
 10
568.7807966458
 20
-153.6301169929
 10
570.6649448718
 20
-153.8106836007
  0
LWPOLYLINE
  5
16F
330
1F
100
AcDbEntity
  8
0
  6
Continuous
 62
     1
370
    25
100
AcDbPolyline
 90
       20
 70
   128
 43
0.0
 10
588.9227223462
 20
-284.9788340707
 10
588.4228835711
 20
-284.7385258871
 10
587.3122566132
 20
-284.4816532999
 10
586.0834617058
 20
-284.5293463196
 10
584.7738351604
 20
-284.8801558181
 10
583.4231693167
 20
-285.5234226262
 10
582.0725034731
 20
-286.4396014074
 10
580.7628769276
 20
-287.6008545332
 10
579.5340820202
 20
-288.9718979149
 10
578.4234550623
 20
-290.5110730931
 10
577.4647418921
 20
-292.171613009
 10
576.6870725241
 20
-293.9030629974
 10
576.1140760484
 20
-295.6528138265
 10
575.7631626732
 20
-297.367700203
 10
575.6449947237
 20
-298.9956161719
 10
575.7631626732
 20
-300.4870983304
 10
576.1140760484
 20
-301.7968287478
 10
576.6870725241
 20
-302.8850119281
 10
577.4647418921
 20
-303.718583976
 10
577.9236162872
 20
-304.0319090431
  0
LWPOLYLINE
  5
170
330
1F
100
AcDbEntity
  8
0
  6
Continuous
 62
     1
370
    25
100
AcDbPolyline
 90
       20
 70
   128
 43
0.0
 10
619.4709725712
 20
-182.1799266731
 10
618.9711337961
 20
-181.9396184895
 10
617.8605068383
 20
-181.6827459023
 10
616.6317119309
 20
-181.730438922
 10
615.3220853854
 20
-182.0812484205
 10
613.9714195417
 20
-182.7245152286
 10
612.6207536981
 20
-183.6406940098
 10
611.3111271526
 20
-184.8019471356
 10
610.0823322452
 20
-186.1729905173
 10
608.9717052873
 20
-187.7121656955
 10
608.0129921171
 20
-189.3727056114
 10
607.2353227491
 20
-191.1041555997
 10
606.6623262735
 20
-192.8539064289
 10
606.3114128982
 20
-194.5687928054
 10
606.1932449487
 20
-196.1967087743
 10
606.3114128982
 20
-197.6881909328
 10
606.6623262735
 20
-198.9979213502
 10
607.2353227491
 20
-200.0861045305
 10
608.0129921171
 20
-200.9196765784
 10
608.4718665122
 20
-201.2330016455
  0
LWPOLYLINE
  5
171
330
1F
100
AcDbEntity
  8
0
  6
Continuous
 62
     1
370
    25
100
AcDbPolyline
 90
       20
 70
   128
 43
0.0
 10
515.1727223462
 20
-362.8297946732
 10
514.6728835711
 20
-362.5894864896
 10
513.5622566132
 20
-362.3326139023
 10
512.3334617058
 20
-362.3803069221
 10
511.0238351604
 20
-362.7311164205
 10
509.6731693167
 20
-363.3743832286
 10
508.3225034731
 20
-364.2905620099
 10
507.0128769276
 20
-365.4518151357
 10
505.7840820202
 20
-366.8228585174
 10
504.6734550623
 20
-368.3620336956
 10
503.7147418921
 20
-370.0225736114
 10
502.9370725241
 20
-371.7540235998
 10
502.3640760484
 20
-373.503774429
 10
502.0131626732
 20
-375.2186608055
 10
501.8949947237
 20
-376.8465767744
 10
502.0131626732
 20
-378.3380589329
 10
502.3640760484
 20
-379.6477893503
 10
502.9370725241
 20
-380.7359725306
 10
503.7147418921
 20
-381.5695445785
 10
504.1736162872
 20
-381.8828696456
  0
LWPOLYLINE
  5
172
330
1F
100
AcDbEntity
  8
0
  6
Continuous
 62
     1
370
    25
100
AcDbPolyline
 90
       20
 70
   128
 43
0.0
 10
588.9227223462
 20
-114.6512782367
 10
588.4228835711
 20
-114.4109700531
 10
587.3122566133
 20
-114.1540974659
 10
586.0834617059
 20
-114.2017904856
 10
584.7738351604
 20
-114.5525999841
 10
583.4231693167
 20
-115.1958667922
 10
582.0725034731
 20
-116.1120455734
 10
580.7628769276
 20
-117.2732986992
 10
579.5340820202
 20
-118.6443420809
 10
578.4234550623
 20
-120.1835172591
 10
577.4647418921
 20
-121.844057175
 10
576.6870725241
 20
-123.5755071634
 10
576.1140760485
 20
-125.3252579925
 10
575.7631626732
 20
-127.040144369
 10
575.6449947237
 20
-128.6680603379
 10
575.7631626732
 20
-130.1595424964
 10
576.1140760485
 20
-131.4692729138
 10
576.6870725241
 20
-132.5574560941
 10
577.4647418921
 20
-133.391028142
 10
577.9236162872
 20
-133.7043532091
  0
LWPOLYLINE
  5
173
330
1F
100
AcDbEntity
  8
0
  6
Continuous
 62
     1
370
    25
100
AcDbPolyline
 90
       20
 70
   128
 43
0.0
 10
441.4227223462
 20
-370.1287716033
 10
440.9228835711
 20
-369.8884634198
 10
439.8122566132
 20
-369.6315908325
 10
438.5834617058
 20
-369.6792838522
 10
437.2738351604
 20
-370.0300933507
 10
435.9231693167
 20
-370.6733601588
 10
434.5725034731
 20
-371.58953894
 10
433.2628769276
 20
-372.7507920658
 10
432.0340820202
 20
-374.1218354475
 10
430.9234550623
 20
-375.6610106258
 10
429.9647418921
 20
-377.3215505416
 10
429.1870725241
 20
-379.05300053
 10
428.6140760484
 20
-380.8027513592
 10
428.2631626732
 20
-382.5176377356
 10
428.1449947237
 20
-384.1455537046
 10
428.2631626732
 20
-385.637035863
 10
428.6140760484
 20
-386.9467662804
 10
429.1870725241
 20
-388.0349494607
 10
429.9647418921
 20
-388.8685215086
 10
430.4236162872
 20
-389.1818465757
  0
LWPOLYLINE
  5
174
330
1F
100
AcDbEntity
  8
0
  6
Continuous
 62
     1
370
    25
100
AcDbPolyline
 90
       20
 70
   128
 43
0.0
 10
515.1727223462
 20
-121.9502551669
 10
514.6728835711
 20
-121.7099469833
 10
513.5622566133
 20
-121.453074396
 10
512.3334617059
 20
-121.5007674158
 10
511.0238351604
 20
-121.8515769142
 10
509.6731693167
 20
-122.4948437223
 10
508.3225034731
 20
-123.4110225036
 10
507.0128769276
 20
-124.5722756294
 10
505.7840820202
 20
-125.9433190111
 10
504.6734550623
 20
-127.4824941893
 10
503.7147418921
 20
-129.1430341051
 10
502.9370725241
 20
-130.8744840935
 10
502.3640760485
 20
-132.6242349227
 10
502.0131626732
 20
-134.3391212991
 10
501.8949947237
 20
-135.9670372681
 10
502.0131626732
 20
-137.4585194266
 10
502.3640760485
 20
-138.768249844
 10
502.9370725241
 20
-139.8564330243
 10
503.7147418921
 20
-140.6900050722
 10
504.1736162872
 20
-141.0033301393
  0
LWPOLYLINE
  5
175
330
1F
100
AcDbEntity
  8
0
  6
Continuous
 62
     1
370
    25
100
AcDbPolyline
 90
       20
 70
   128
 43
0.0
 10
410.8744721212
 20
-302.6001231669
 10
410.3746333461
 20
-302.3598149834
 10
409.2640063882
 20
-302.1029423961
 10
408.0352114808
 20
-302.1506354158
 10
406.7255849354
 20
-302.5014449143
 10
405.3749190917
 20
-303.1447117224
 10
404.024253248
 20
-304.0608905037
 10
402.7146267026
 20
-305.2221436294
 10
401.4858317952
 20
-306.5931870111
 10
400.3752048373
 20
-308.1323621894
 10
399.4164916671
 20
-309.7929021052
 10
398.638822299
 20
-311.5243520936
 10
398.0658258234
 20
-313.2741029228
 10
397.7149124482
 20
-314.9889892992
 10
397.5967444986
 20
-316.6169052682
 10
397.7149124482
 20
-318.1083874267
 10
398.0658258234
 20
-319.418117844
 10
398.638822299
 20
-320.5063010243
 10
399.4164916671
 20
-321.3398730722
 10
399.8753660622
 20
-321.6531981393
  0
LWPOLYLINE
  5
176
330
1F
100
AcDbEntity
  8
0
  6
Continuous
 62
     1
370
    25
100
AcDbPolyline
 90
       20
 70
   128
 43
0.0
 10
441.4227223462
 20
-199.8012157693
 10
440.9228835711
 20
-199.5609075857
 10
439.8122566132
 20
-199.3040349985
 10
438.5834617058
 20
-199.3517280182
 10
437.2738351604
 20
-199.7025375167
 10
435.9231693167
 20
-200.3458043248
 10
434.5725034731
 20
-201.261983106
 10
433.2628769276
 20
-202.4232362318
 10
432.0340820202
 20
-203.7942796135
 10
430.9234550623
 20
-205.3334547917
 10
429.9647418921
 20
-206.9939947076
 10
429.1870725241
 20
-208.725444696
 10
428.6140760484
 20
-210.4751955251
 10
428.2631626732
 20
-212.1900819016
 10
428.1449947237
 20
-213.8179978705
 10
428.2631626732
 20
-215.309480029
 10
428.6140760484
 20
-216.6192104464
 10
429.1870725241
 20
-217.7073936267
 10
429.9647418921
 20
-218.5409656746
 10
430.4236162872
 20
-218.8542907417
  0
ENDSEC
  0
SECTION
  2
OBJECTS
  0
DICTIONARY
  5
C
330
0
100
AcDbDictionary
281
     1
  3
ACAD_GROUP
350
D
  3
ACAD_LAYOUT
350
1A
  3
ACAD_MLINESTYLE
350
17
  3
ACAD_PLOTSETTINGS
350
19
  3
ACAD_PLOTSTYLENAME
350
E
  3
ACAD_SCALELIST
350
47
  3
DWGPROPS
350
177
  0
DICTIONARY
  5
D
102
{ACAD_REACTORS
330
C
102
}
330
C
100
AcDbDictionary
281
     1
  0
DICTIONARY
  5
1A
102
{ACAD_REACTORS
330
C
102
}
330
C
100
AcDbDictionary
281
     1
  3
Layout1
350
1E
  3
Layout2
350
26
  3
Model
350
22
  0
DICTIONARY
  5
17
102
{ACAD_REACTORS
330
C
102
}
330
C
100
AcDbDictionary
281
     1
  3
Standard
350
18
  0
DICTIONARY
  5
19
102
{ACAD_REACTORS
330
C
102
}
330
C
100
AcDbDictionary
281
     1
  0
ACDBDICTIONARYWDFLT
  5
E
102
{ACAD_REACTORS
330
C
102
}
330
C
100
AcDbDictionary
281
     1
  3
Normal
350
F
100
AcDbDictionaryWithDefault
340
F
  0
DICTIONARY
  5
47
102
{ACAD_REACTORS
330
C
102
}
330
C
100
AcDbDictionary
281
     1
  3
A0
350
48
  3
A1
350
49
  3
A2
350
4A
  3
A3
350
4B
  3
A4
350
4C
  3
A5
350
4D
  3
A6
350
4E
  3
A7
350
4F
  3
A8
350
50
  3
A9
350
51
  3
B0
350
52
  3
B1
350
53
  3
B2
350
54
  3
B3
350
55
  3
B4
350
56
  3
B5
350
57
  3
B6
350
58
  3
B7
350
59
  3
B8
350
5A
  3
B9
350
5B
  3
C0
350
5C
  3
C1
350
5D
  3
C2
350
5E
  3
C3
350
5F
  3
C4
350
60
  3
C5
350
61
  3
C6
350
62
  3
C7
350
63
  3
C8
350
64
  3
C9
350
65
  3
D0
350
66
  3
D1
350
67
  3
D2
350
68
  0
XRECORD
  5
177
102
{ACAD_REACTORS
330
C
102
}
330
C
100
AcDbXrecord
280
     1
  1
DWGPROPS COOKIE
  2

  3

  4

  6

  7

  8
b.kav
  9

300
=
301
=
302
=
303
=
304
=
305
=
306
=
307
=
308
=
309
=
 40
0.0
 41
2459741.4660136
 42
2459741.466015555
  1

 90
        0
  0
LAYOUT
  5
1E
102
{ACAD_REACTORS
330
1A
102
}
330
1A
100
AcDbPlotSettings
  1

  2
none_device
  4

  6

 40
0.0
 41
0.0
 42
0.0
 43
0.0
 44
0.0
 45
0.0
 46
0.0
 47
0.0
 48
0.0
 49
0.0
140
0.0
141
0.0
142
1.0
143
1.0
 70
   688
 72
     1
 73
     0
 74
     5
  7

 75
    16
147
1.0
148
0.0
149
0.0
100
AcDbLayout
  1
Layout1
 70
     1
 71
     1
 10
0.0
 20
0.0
 11
420.0
 21
297.0
 12
0.0
 22
0.0
 32
0.0
 14
1.0000000000E+20
 24
1.0000000000E+20
 34
1.0000000000E+20
 15
-1.0000000000E+20
 25
-1.0000000000E+20
 35
-1.0000000000E+20
146
0.0
 13
0.0
 23
0.0
 33
0.0
 16
1.0
 26
0.0
 36
0.0
 17
0.0
 27
1.0
 37
0.0
 76
     0
330
1B
  0
LAYOUT
  5
26
102
{ACAD_REACTORS
330
1A
102
}
330
1A
100
AcDbPlotSettings
  1

  2
none_device
  4

  6

 40
0.0
 41
0.0
 42
0.0
 43
0.0
 44
0.0
 45
0.0
 46
0.0
 47
0.0
 48
0.0
 49
0.0
140
0.0
141
0.0
142
1.0
143
1.0
 70
   688
 72
     1
 73
     0
 74
     5
  7

 75
    16
147
1.0
148
0.0
149
0.0
100
AcDbLayout
  1
Layout2
 70
     1
 71
     2
 10
0.0
 20
0.0
 11
0.0
 21
0.0
 12
0.0
 22
0.0
 32
0.0
 14
0.0
 24
0.0
 34
0.0
 15
0.0
 25
0.0
 35
0.0
146
0.0
 13
0.0
 23
0.0
 33
0.0
 16
1.0
 26
0.0
 36
0.0
 17
0.0
 27
1.0
 37
0.0
 76
     0
330
23
  0
LAYOUT
  5
22
102
{ACAD_REACTORS
330
1A
102
}
330
1A
100
AcDbPlotSettings
  1

  2
none_device
  4
Letter_(8.50_x_11.00_Inches)
  6

 40
6.35
 41
6.35
 42
6.35000508
 43
6.35000508
 44
215.9
 45
279.4
 46
0.0
 47
0.0
 48
0.0
 49
0.0
140
0.0
141
0.0
142
1.0
143
1.0
 70
  1712
 72
     1
 73
     0
 74
     0
  7

 75
     0
147
1.0
148
0.0
149
0.0
100
AcDbLayout
  1
Model
 70
     1
 71
     0
 10
0.0
 20
0.0
 11
279.4
 21
215.9
 12
0.0
 22
0.0
 32
0.0
 14
0.0
 24
0.0
 34
0.0
 15
279.4
 25
215.9
 35
0.0
146
0.0
 13
0.0
 23
0.0
 33
0.0
 16
1.0
 26
0.0
 36
0.0
 17
0.0
 27
1.0
 37
0.0
 76
     0
330
1F
331
29
  0
MLINESTYLE
  5
18
102
{ACAD_REACTORS
330
17
102
}
330
17
100
AcDbMlineStyle
  2
Standard
 70
     0
  3

 62
   256
 51
90.0
 52
90.0
 71
     2
 49
0.5
 62
   256
  6
BYLAYER
 49
-0.5
 62
   256
  6
BYLAYER
  0
ACDBPLACEHOLDER
  5
F
102
{ACAD_REACTORS
330
E
102
}
330
E
  0
SCALE
  5
48
102
{ACAD_REACTORS
330
47
102
}
330
47
100
AcDbScale
 70
     0
300
1:1
140
1.0
141
1.0
290
     1
  0
SCALE
  5
49
102
{ACAD_REACTORS
330
47
102
}
330
47
100
AcDbScale
 70
     0
300
1:2
140
1.0
141
2.0
290
     0
  0
SCALE
  5
4A
102
{ACAD_REACTORS
330
47
102
}
330
47
100
AcDbScale
 70
     0
300
1:4
140
1.0
141
4.0
290
     0
  0
SCALE
  5
4B
102
{ACAD_REACTORS
330
47
102
}
330
47
100
AcDbScale
 70
     0
300
1:5
140
1.0
141
5.0
290
     0
  0
SCALE
  5
4C
102
{ACAD_REACTORS
330
47
102
}
330
47
100
AcDbScale
 70
     0
300
1:8
140
1.0
141
8.0
290
     0
  0
SCALE
  5
4D
102
{ACAD_REACTORS
330
47
102
}
330
47
100
AcDbScale
 70
     0
300
1:10
140
1.0
141
10.0
290
     0
  0
SCALE
  5
4E
102
{ACAD_REACTORS
330
47
102
}
330
47
100
AcDbScale
 70
     0
300
1:16
140
1.0
141
16.0
290
     0
  0
SCALE
  5
4F
102
{ACAD_REACTORS
330
47
102
}
330
47
100
AcDbScale
 70
     0
300
1:20
140
1.0
141
20.0
290
     0
  0
SCALE
  5
50
102
{ACAD_REACTORS
330
47
102
}
330
47
100
AcDbScale
 70
     0
300
1:30
140
1.0
141
30.0
290
     0
  0
SCALE
  5
51
102
{ACAD_REACTORS
330
47
102
}
330
47
100
AcDbScale
 70
     0
300
1:40
140
1.0
141
40.0
290
     0
  0
SCALE
  5
52
102
{ACAD_REACTORS
330
47
102
}
330
47
100
AcDbScale
 70
     0
300
1:50
140
1.0
141
50.0
290
     0
  0
SCALE
  5
53
102
{ACAD_REACTORS
330
47
102
}
330
47
100
AcDbScale
 70
     0
300
1:100
140
1.0
141
100.0
290
     0
  0
SCALE
  5
54
102
{ACAD_REACTORS
330
47
102
}
330
47
100
AcDbScale
 70
     0
300
2:1
140
2.0
141
1.0
290
     0
  0
SCALE
  5
55
102
{ACAD_REACTORS
330
47
102
}
330
47
100
AcDbScale
 70
     0
300
4:1
140
4.0
141
1.0
290
     0
  0
SCALE
  5
56
102
{ACAD_REACTORS
330
47
102
}
330
47
100
AcDbScale
 70
     0
300
8:1
140
8.0
141
1.0
290
     0
  0
SCALE
  5
57
102
{ACAD_REACTORS
330
47
102
}
330
47
100
AcDbScale
 70
     0
300
10:1
140
10.0
141
1.0
290
     0
  0
SCALE
  5
58
102
{ACAD_REACTORS
330
47
102
}
330
47
100
AcDbScale
 70
     0
300
100:1
140
100.0
141
1.0
290
     0
  0
SCALE
  5
59
102
{ACAD_REACTORS
330
47
102
}
330
47
100
AcDbScale
 70
     0
300
1/128" = 1'-0"
140
0.0078125
141
12.0
290
     0
  0
SCALE
  5
5A
102
{ACAD_REACTORS
330
47
102
}
330
47
100
AcDbScale
 70
     0
300
1/64" = 1'-0"
140
0.015625
141
12.0
290
     0
  0
SCALE
  5
5B
102
{ACAD_REACTORS
330
47
102
}
330
47
100
AcDbScale
 70
     0
300
1/32" = 1'-0"
140
0.03125
141
12.0
290
     0
  0
SCALE
  5
5C
102
{ACAD_REACTORS
330
47
102
}
330
47
100
AcDbScale
 70
     0
300
1/16" = 1'-0"
140
0.0625
141
12.0
290
     0
  0
SCALE
  5
5D
102
{ACAD_REACTORS
330
47
102
}
330
47
100
AcDbScale
 70
     0
300
3/32" = 1'-0"
140
0.09375
141
12.0
290
     0
  0
SCALE
  5
5E
102
{ACAD_REACTORS
330
47
102
}
330
47
100
AcDbScale
 70
     0
300
1/8" = 1'-0"
140
0.125
141
12.0
290
     0
  0
SCALE
  5
5F
102
{ACAD_REACTORS
330
47
102
}
330
47
100
AcDbScale
 70
     0
300
3/16" = 1'-0"
140
0.1875
141
12.0
290
     0
  0
SCALE
  5
60
102
{ACAD_REACTORS
330
47
102
}
330
47
100
AcDbScale
 70
     0
300
1/4" = 1'-0"
140
0.25
141
12.0
290
     0
  0
SCALE
  5
61
102
{ACAD_REACTORS
330
47
102
}
330
47
100
AcDbScale
 70
     0
300
3/8" = 1'-0"
140
0.375
141
12.0
290
     0
  0
SCALE
  5
62
102
{ACAD_REACTORS
330
47
102
}
330
47
100
AcDbScale
 70
     0
300
1/2" = 1'-0"
140
0.5
141
12.0
290
     0
  0
SCALE
  5
63
102
{ACAD_REACTORS
330
47
102
}
330
47
100
AcDbScale
 70
     0
300
3/4" = 1'-0"
140
0.75
141
12.0
290
     0
  0
SCALE
  5
64
102
{ACAD_REACTORS
330
47
102
}
330
47
100
AcDbScale
 70
     0
300
1" = 1'-0"
140
1.0
141
12.0
290
     0
  0
SCALE
  5
65
102
{ACAD_REACTORS
330
47
102
}
330
47
100
AcDbScale
 70
     0
300
1-1/2" = 1'-0"
140
1.5
141
12.0
290
     0
  0
SCALE
  5
66
102
{ACAD_REACTORS
330
47
102
}
330
47
100
AcDbScale
 70
     0
300
3" = 1'-0"
140
3.0
141
12.0
290
     0
  0
SCALE
  5
67
102
{ACAD_REACTORS
330
47
102
}
330
47
100
AcDbScale
 70
     0
300
6" = 1'-0"
140
6.0
141
12.0
290
     0
  0
SCALE
  5
68
102
{ACAD_REACTORS
330
47
102
}
330
47
100
AcDbScale
 70
     0
300
1'-0" = 1'-0"
140
12.0
141
12.0
290
     0
  0
ENDSEC
  0
EOF
